  0
SECTION
  2
HEADER
  9
$ACADVER
  1
AC1024
  9
$ACADMAINTVER
 70
     6
  9
$DWGCODEPAGE
  3
ANSI_1252
  9
$INSBASE
 10
0.0
 20
0.0
 30
0.0
  9
$EXTMIN
 10
0.0
 20
0.0
 30
0.0
  9
$EXTMAX
 10
118.1102362205
 20
118.1102362205
 30
0.0
  9
$LIMMIN
 10
0.0
 20
0.0
  9
$LIMMAX
 10
118.1102362205
 20
118.1102362205
  9
$ORTHOMODE
 70
     0
  9
$REGENMODE
 70
     1
  9
$FILLMODE
 70
     1
  9
$QTEXTMODE
 70
     0
  9
$MIRRTEXT
 70
     1
  9
$LTSCALE
 40
1.0
  9
$ATTMODE
 70
     1
  9
$TEXTSIZE
 40
0.1377952756
  9
$TRACEWID
 40
0.05
  9
$TEXTSTYLE
  7
STANDARD
  9
$CLAYER
  8
0
  9
$CELTYPE
  6
ByLayer
  9
$CECOLOR
 62
   256
  9
$CELTSCALE
 40
1.0
  9
$DISPSILH
 70
     0
  9
$DIMSCALE
 40
1.0
  9
$DIMASZ
 40
0.2362204724
  9
$DIMEXO
 40
0.0393700787
  9
$DIMDLI
 40
0.38
  9
$DIMRND
 40
0.0
  9
$DIMDLE
 40
0.0
  9
$DIMEXE
 40
0.0393700787
  9
$DIMTP
 40
0.0
  9
$DIMTM
 40
0.0
  9
$DIMTXT
 40
0.1377952756
  9
$DIMCEN
 40
0.09
  9
$DIMTSZ
 40
0.0
  9
$DIMTOL
 70
     0
  9
$DIMLIM
 70
     0
  9
$DIMTIH
 70
     1
  9
$DIMTOH
 70
     1
  9
$DIMSE1
 70
     0
  9
$DIMSE2
 70
     0
  9
$DIMTAD
 70
     1
  9
$DIMZIN
 70
     0
  9
$DIMBLK
  1

  9
$DIMASO
 70
     1
  9
$DIMSHO
 70
     1
  9
$DIMPOST
  1

  9
$DIMAPOST
  1

  9
$DIMALT
 70
     0
  9
$DIMALTD
 70
     2
  9
$DIMALTF
 40
25.4
  9
$DIMLFAC
 40
1.0
  9
$DIMTOFL
 70
     0
  9
$DIMTVP
 40
0.0
  9
$DIMTIX
 70
     0
  9
$DIMSOXD
 70
     0
  9
$DIMSAH
 70
     0
  9
$DIMBLK1
  1

  9
$DIMBLK2
  1

  9
$DIMSTYLE
  2
Standard
  9
$DIMCLRD
 70
     0
  9
$DIMCLRE
 70
     0
  9
$DIMCLRT
 70
     0
  9
$DIMTFAC
 40
1.0
  9
$DIMGAP
 40
0.06
  9
$DIMJUST
 70
     0
  9
$DIMSD1
 70
     0
  9
$DIMSD2
 70
     0
  9
$DIMTOLJ
 70
     1
  9
$DIMTZIN
 70
     0
  9
$DIMALTZ
 70
     0
  9
$DIMALTTZ
 70
     0
  9
$DIMUPT
 70
     0
  9
$DIMDEC
 70
     3
  9
$DIMTDEC
 70
     3
  9
$DIMALTU
 70
     2
  9
$DIMALTTD
 70
     2
  9
$DIMTXSTY
  7
STANDARD
  9
$DIMAUNIT
 70
     0
  9
$DIMADEC
 70
     2
  9
$DIMALTRND
 40
0.0
  9
$DIMAZIN
 70
     0
  9
$DIMDSEP
 70
    46
  9
$DIMATFIT
 70
     3
  9
$DIMFRAC
 70
     0
  9
$DIMLDRBLK
  1

  9
$DIMLUNIT
 70
     2
  9
$DIMLWD
 70
    -2
  9
$DIMLWE
 70
    -2
  9
$DIMTMOVE
 70
     0
  9
$DIMFXL
 40
1.0
  9
$DIMFXLON
 70
     0
  9
$DIMJOGANG
 40
0.7853981634
  9
$DIMTFILL
 70
     0
  9
$DIMTFILLCLR
 70
     0
  9
$DIMARCSYM
 70
     0
  9
$DIMLTYPE
  6

  9
$DIMLTEX1
  6

  9
$DIMLTEX2
  6

  9
$DIMTXTDIRECTION
 70
     0
  9
$LUNITS
 70
     2
  9
$LUPREC
 70
     2
  9
$SKETCHINC
 40
0.1
  9
$FILLETRAD
 40
0.5
  9
$AUNITS
 70
     0
  9
$AUPREC
 70
     2
  9
$MENU
  1
.
  9
$ELEVATION
 40
0.0
  9
$PELEVATION
 40
0.0
  9
$THICKNESS
 40
0.0
  9
$LIMCHECK
 70
     0
  9
$CHAMFERA
 40
0.0
  9
$CHAMFERB
 40
0.0
  9
$CHAMFERC
 40
0.0
  9
$CHAMFERD
 40
0.0
  9
$SKPOLY
 70
     0
  9
$TDCREATE
 40
2457254.56708022
  9
$TDUCREATE
 40
2457254.775413553
  9
$TDUPDATE
 40
2457254.567081053
  9
$TDUUPDATE
 40
2457254.775414387
  9
$TDINDWG
 40
0.0000000116
  9
$TDUSRTIMER
 40
0.0000000116
  9
$USRTIMER
 70
     1
  9
$ANGBASE
 50
0.0
  9
$ANGDIR
 70
     0
  9
$PDMODE
 70
     0
  9
$PDSIZE
 40
-1.0
  9
$PLINEWID
 40
0.0
  9
$SPLFRAME
 70
     0
  9
$SPLINETYPE
 70
     6
  9
$SPLINESEGS
 70
     8
  9
$HANDSEED
  5
3DC
  9
$SURFTAB1
 70
     6
  9
$SURFTAB2
 70
     6
  9
$SURFTYPE
 70
     6
  9
$SURFU
 70
     6
  9
$SURFV
 70
     6
  9
$UCSBASE
  2

  9
$UCSNAME
  2

  9
$UCSORG
 10
0.0
 20
0.0
 30
0.0
  9
$UCSXDIR
 10
1.0
 20
0.0
 30
0.0
  9
$UCSYDIR
 10
0.0
 20
1.0
 30
0.0
  9
$UCSORTHOREF
  2

  9
$UCSORTHOVIEW
 70
     0
  9
$UCSORGTOP
 10
0.0
 20
0.0
 30
0.0
  9
$UCSORGBOTTOM
 10
0.0
 20
0.0
 30
0.0
  9
$UCSORGLEFT
 10
0.0
 20
0.0
 30
0.0
  9
$UCSORGRIGHT
 10
0.0
 20
0.0
 30
0.0
  9
$UCSORGFRONT
 10
0.0
 20
0.0
 30
0.0
  9
$UCSORGBACK
 10
0.0
 20
0.0
 30
0.0
  9
$PUCSBASE
  2

  9
$PUCSNAME
  2

  9
$PUCSORG
 10
0.0
 20
0.0
 30
0.0
  9
$PUCSXDIR
 10
1.0
 20
0.0
 30
0.0
  9
$PUCSYDIR
 10
0.0
 20
1.0
 30
0.0
  9
$PUCSORTHOREF
  2

  9
$PUCSORTHOVIEW
 70
     0
  9
$PUCSORGTOP
 10
0.0
 20
0.0
 30
0.0
  9
$PUCSORGBOTTOM
 10
0.0
 20
0.0
 30
0.0
  9
$PUCSORGLEFT
 10
0.0
 20
0.0
 30
0.0
  9
$PUCSORGRIGHT
 10
0.0
 20
0.0
 30
0.0
  9
$PUCSORGFRONT
 10
0.0
 20
0.0
 30
0.0
  9
$PUCSORGBACK
 10
0.0
 20
0.0
 30
0.0
  9
$USERI1
 70
     0
  9
$USERI2
 70
     0
  9
$USERI3
 70
     0
  9
$USERI4
 70
     0
  9
$USERI5
 70
     0
  9
$USERR1
 40
0.0
  9
$USERR2
 40
0.0
  9
$USERR3
 40
0.0
  9
$USERR4
 40
0.0
  9
$USERR5
 40
0.0
  9
$WORLDVIEW
 70
     1
  9
$SHADEDGE
 70
     3
  9
$SHADEDIF
 70
    70
  9
$TILEMODE
 70
     1
  9
$MAXACTVP
 70
    64
  9
$PINSBASE
 10
0.0
 20
0.0
 30
0.0
  9
$PLIMCHECK
 70
     0
  9
$PEXTMIN
 10
1.0000000000E+20
 20
1.0000000000E+20
 30
1.0000000000E+20
  9
$PEXTMAX
 10
-1.0000000000E+20
 20
-1.0000000000E+20
 30
-1.0000000000E+20
  9
$PLIMMIN
 10
0.0
 20
0.0
  9
$PLIMMAX
 10
12.0
 20
9.0
  9
$UNITMODE
 70
     0
  9
$VISRETAIN
 70
     1
  9
$PLINEGEN
 70
     0
  9
$PSLTSCALE
 70
     1
  9
$TREEDEPTH
 70
  3020
  9
$CMLSTYLE
  2
Standard
  9
$CMLJUST
 70
     0
  9
$CMLSCALE
 40
1.0
  9
$PROXYGRAPHICS
 70
     1
  9
$MEASUREMENT
 70
     0
  9
$CELWEIGHT
370
    -1
  9
$ENDCAPS
280
     0
  9
$JOINSTYLE
280
     0
  9
$LWDISPLAY
290
     1
  9
$INSUNITS
 70
     1
  9
$HYPERLINKBASE
  1

  9
$STYLESHEET
  1

  9
$XEDIT
290
     1
  9
$CEPSNTYPE
380
     0
  9
$PSTYLEMODE
290
     1
  9
$FINGERPRINTGUID
  2
{BF6CFE69-4FED-4179-B116-83975BE7AE75}
  9
$VERSIONGUID
  2
{FAEB1C32-E019-11D5-929B-00C0DF256EC4}
  9
$EXTNAMES
290
     1
  9
$PSVPSCALE
 40
0.0
  9
$OLESTARTUP
290
     0
  9
$SORTENTS
280
   127
  9
$INDEXCTL
280
     0
  9
$HIDETEXT
280
     1
  9
$XCLIPFRAME
280
     2
  9
$HALOGAP
280
     0
  9
$OBSCOLOR
 70
   257
  9
$OBSLTYPE
280
     0
  9
$INTERSECTIONDISPLAY
280
     0
  9
$INTERSECTIONCOLOR
 70
   257
  9
$DIMASSOC
280
     2
  9
$PROJECTNAME
  1

  9
$CAMERADISPLAY
290
     0
  9
$LENSLENGTH
 40
50.0
  9
$CAMERAHEIGHT
 40
0.0
  9
$STEPSPERSEC
 40
2.0
  9
$STEPSIZE
 40
6.0
  9
$3DDWFPREC
 40
2.0
  9
$PSOLWIDTH
 40
0.25
  9
$PSOLHEIGHT
 40
4.0
  9
$LOFTANG1
 40
1.5707963268
  9
$LOFTANG2
 40
1.5707963268
  9
$LOFTMAG1
 40
0.0
  9
$LOFTMAG2
 40
0.0
  9
$LOFTPARAM
 70
     7
  9
$LOFTNORMALS
280
     1
  9
$LATITUDE
 40
37.795
  9
$LONGITUDE
 40
-122.394
  9
$NORTHDIRECTION
 40
0.0
  9
$TIMEZONE
 70
 -8000
  9
$LIGHTGLYPHDISPLAY
280
     1
  9
$TILEMODELIGHTSYNCH
280
     1
  9
$CMATERIAL
347
44
  9
$SOLIDHIST
280
     1
  9
$SHOWHIST
280
     1
  9
$DWFFRAME
280
     2
  9
$DGNFRAME
280
     2
  9
$REALWORLDSCALE
290
     1
  9
$INTERFERECOLOR
 62
   256
  9
$CSHADOW
280
     0
  9
$SHADOWPLANELOCATION
 40
0.0
  0
ENDSEC
  0
SECTION
  2
CLASSES
  0
CLASS
  1
ACDBDICTIONARYWDFLT
  2
AcDbDictionaryWithDefault
  3
ObjectDBX Classes
 90
        0
 91
        4
280
     0
281
     0
  0
CLASS
  1
VISUALSTYLE
  2
AcDbVisualStyle
  3
ObjectDBX Classes
 90
     4095
 91
        4
280
     0
281
     0
  0
CLASS
  1
MATERIAL
  2
AcDbMaterial
  3
ObjectDBX Classes
 90
     1153
 91
        4
280
     0
281
     0
  0
CLASS
  1
SCALE
  2
AcDbScale
  3
ObjectDBX Classes
 90
     1153
 91
        4
280
     0
281
     0
  0
CLASS
  1
SUN
  2
AcDbSun
  3
SCENEOE
 90
     1153
 91
        4
280
     0
281
     0
  0
CLASS
  1
DICTIONARYVAR
  2
AcDbDictionaryVar
  3
ObjectDBX Classes
 90
        0
 91
        4
280
     0
281
     0
  0
ENDSEC
  0
SECTION
  2
TABLES
  0
TABLE
  2
VPORT
  5
8
330
0
100
AcDbSymbolTable
 70
     1
  0
VPORT
  5
29
330
8
100
AcDbSymbolTableRecord
100
AcDbViewportTableRecord
  2
*Active
 70
     0
 10
0.0
 20
0.0
 11
1.0
 21
1.0
 12
59.0551181102
 22
59.0551181102
 13
0.0
 23
0.0
 14
0.5
 24
0.5
 15
0.5
 25
0.5
 16
0.0
 26
0.0
 36
1.0
 17
0.0
 27
0.0
 37
0.0
 40
118.1102362205
 41
1.0
 42
50.0
 43
0.0
 44
0.0
 50
0.0
 51
0.0
 71
     0
 72
  2000
 73
     1
 74
     3
 75
     0
 76
     0
 77
     0
 78
     0
281
     0
 65
     1
110
0.0
120
0.0
130
0.0
111
1.0
121
0.0
131
0.0
112
0.0
122
1.0
132
0.0
 79
     0
146
0.0
 60
     3
 61
     5
292
     1
282
     1
141
0.0
142
0.0
 63
   250
361
69
  0
ENDTAB
  0
TABLE
  2
LTYPE
  5
5
330
0
100
AcDbSymbolTable
 70
     6
  0
LTYPE
  5
14
330
5
100
AcDbSymbolTableRecord
100
AcDbLinetypeTableRecord
  2
ByBlock
 70
     0
  3

 72
    65
 73
     0
 40
0.0
  0
LTYPE
  5
15
330
5
100
AcDbSymbolTableRecord
100
AcDbLinetypeTableRecord
  2
ByLayer
 70
     0
  3

 72
    65
 73
     0
 40
0.0
  0
LTYPE
  5
16
330
5
100
AcDbSymbolTableRecord
100
AcDbLinetypeTableRecord
  2
Continuous
 70
     0
  3
Solid line
 72
    65
 73
     0
 40
0.0
  0
LTYPE
  5
6A
330
5
100
AcDbSymbolTableRecord
100
AcDbLinetypeTableRecord
  2
HIDDEN
 70
     0
  3
Hidden __ __ __ __ __ __ __ __ __ __ __ __ __ __
 72
    65
 73
     2
 40
0.075
 49
0.05
 74
     0
 49
-0.025
 74
     0
  0
LTYPE
  5
6B
330
5
100
AcDbSymbolTableRecord
100
AcDbLinetypeTableRecord
  2
PHANTOM
 70
     0
  3
Phantom ______  __  __  ______  __  __  ______
 72
    65
 73
     6
 40
0.5
 49
0.25
 74
     0
 49
-0.05
 74
     0
 49
0.05
 74
     0
 49
-0.05
 74
     0
 49
0.05
 74
     0
 49
-0.05
 74
     0
  0
LTYPE
  5
6C
330
5
100
AcDbSymbolTableRecord
100
AcDbLinetypeTableRecord
  2
CENTER
 70
     0
  3
Center ____ _ ____ _ ____ _ ____ _ ____ _ ____
 72
    65
 73
     4
 40
0.4
 49
0.25
 74
     0
 49
-0.05
 74
     0
 49
0.05
 74
     0
 49
-0.05
 74
     0
  0
LTYPE
  5
6D
330
5
100
AcDbSymbolTableRecord
100
AcDbLinetypeTableRecord
  2
CENTERX2
 70
     0
  3
Center (2x) ________  __  ________  __  _____
 72
    65
 73
     4
 40
0.8
 49
0.5
 74
     0
 49
-0.1
 74
     0
 49
0.1
 74
     0
 49
-0.1
 74
     0
  0
LTYPE
  5
6E
330
5
100
AcDbSymbolTableRecord
100
AcDbLinetypeTableRecord
  2
DOT2
 70
     0
  3
Dot (.5x) ........................................
 72
    65
 73
     2
 40
0.025
 49
0.0
 74
     0
 49
-0.025
 74
     0
  0
ENDTAB
  0
TABLE
  2
LAYER
  5
2
330
0
100
AcDbSymbolTable
 70
     1
  0
LAYER
  5
10
330
2
100
AcDbSymbolTableRecord
100
AcDbLayerTableRecord
  2
0
 70
     0
 62
     7
  6
Continuous
370
    -3
390
F
347
46
  0
ENDTAB
  0
TABLE
  2
STYLE
  5
3
330
0
100
AcDbSymbolTable
 70
     1
  0
STYLE
  5
11
330
3
100
AcDbSymbolTableRecord
100
AcDbTextStyleTableRecord
  2
STANDARD
 70
     0
 40
0.0
 41
1.0
 50
0.0
 71
     0
 42
0.1377952756
  3
GOTHIC.TTF
  4

1001
ACAD
1000
CENTURY GOTHIC
1071
       34
  0
ENDTAB
  0
TABLE
  2
VIEW
  5
6
330
0
100
AcDbSymbolTable
 70
     0
  0
ENDTAB
  0
TABLE
  2
UCS
  5
7
330
0
100
AcDbSymbolTable
 70
     0
  0
ENDTAB
  0
TABLE
  2
APPID
  5
9
330
0
100
AcDbSymbolTable
 70
     1
  0
APPID
  5
12
330
9
100
AcDbSymbolTableRecord
100
AcDbRegAppTableRecord
  2
ACAD
 70
     0
  0
ENDTAB
  0
TABLE
  2
DIMSTYLE
  5
A
330
0
100
AcDbSymbolTable
 70
     1
100
AcDbDimStyleTable
  0
DIMSTYLE
105
27
330
A
100
AcDbSymbolTableRecord
100
AcDbDimStyleTableRecord
  2
Standard
 70
     0
178
     0
340
11
  0
ENDTAB
  0
TABLE
  2
BLOCK_RECORD
  5
1
330
0
100
AcDbSymbolTable
 70
     1
  0
BLOCK_RECORD
  5
1F
330
1
100
AcDbSymbolTableRecord
100
AcDbBlockTableRecord
  2
*Model_Space
340
22
 70
     0
280
     1
281
     0
  0
BLOCK_RECORD
  5
1B
330
1
100
AcDbSymbolTableRecord
100
AcDbBlockTableRecord
  2
*Paper_Space
340
1E
 70
     0
280
     1
281
     0
  0
BLOCK_RECORD
  5
23
330
1
100
AcDbSymbolTableRecord
100
AcDbBlockTableRecord
  2
*Paper_Space0
340
26
 70
     0
280
     1
281
     0
  0
ENDTAB
  0
ENDSEC
  0
SECTION
  2
BLOCKS
  0
BLOCK
  5
20
330
1F
100
AcDbEntity
  8
0
100
AcDbBlockBegin
  2
*Model_Space
 70
     0
 10
0.0
 20
0.0
 30
0.0
  3
*Model_Space
  1
*Model_Space
  0
ENDBLK
  5
21
330
1F
100
AcDbEntity
  8
0
100
AcDbBlockEnd
  0
BLOCK
  5
1C
330
1B
100
AcDbEntity
 67
     1
  8
0
100
AcDbBlockBegin
  2
*Paper_Space
 70
     0
 10
0.0
 20
0.0
 30
0.0
  3
*Paper_Space
  1
*Paper_Space
  0
ENDBLK
  5
1D
330
1B
100
AcDbEntity
 67
     1
  8
0
100
AcDbBlockEnd
  0
BLOCK
  5
24
330
23
100
AcDbEntity
  8
0
100
AcDbBlockBegin
  2
*Paper_Space0
 70
     0
 10
0.0
 20
0.0
 30
0.0
  3
*Paper_Space0
  1
*Paper_Space0
  0
ENDBLK
  5
25
330
23
100
AcDbEntity
  8
0
100
AcDbBlockEnd
  0
ENDSEC
  0
SECTION
  2
ENTITIES
  0
SPLINE
  5
6F
330
1F
100
AcDbEntity
  8
0
  6
Continuous
 62
     7
370
    15
100
AcDbSpline
210
0.0
220
0.0
230
1.0
 70
     8
 71
     3
 72
     9
 73
     5
 74
     0
 42
0.000000001
 43
0.00000001
 40
0.0
 40
0.0
 40
0.0
 40
0.0
 40
0.9748731403562777
 40
1.0
 40
1.0
 40
1.0
 40
1.0
 10
64.97351278412974
 20
66.57327347567505
 30
0.0
 10
65.0024406872738
 20
66.55510872670692
 30
0.0
 10
65.03211419241674
 20
66.53647579056766
 30
0.0
 10
65.06035831003855
 20
66.51578788778797
 30
0.0
 10
65.06106799601778
 20
66.51526806575849
 30
0.0
  0
SPLINE
  5
70
330
1F
100
AcDbEntity
  8
0
  6
Continuous
 62
     7
370
    15
100
AcDbSpline
210
0.0
220
0.0
230
1.0
 70
     8
 71
     3
 72
     9
 73
     5
 74
     0
 42
0.000000001
 43
0.00000001
 40
0.0
 40
0.0
 40
0.0
 40
0.0
 40
0.7173581913080795
 40
1.0
 40
1.0
 40
1.0
 40
1.0
 10
63.65112371714775
 20
66.5146462062756
 30
0.0
 10
63.66803540739421
 20
66.52753546238333
 30
0.0
 10
63.69161036680973
 20
66.54550313357451
 30
0.0
 10
63.71718950880623
 20
66.56041584613267
 30
0.0
 10
63.7244192437649
 20
66.56463080218262
 30
0.0
  0
SPLINE
  5
71
330
1F
100
AcDbEntity
  8
0
  6
Continuous
 62
     7
370
    15
100
AcDbSpline
210
0.0
220
0.0
230
1.0
 70
     8
 71
     3
 72
     9
 73
     5
 74
     0
 42
0.000000001
 43
0.00000001
 40
0.0
 40
0.0
 40
0.0
 40
0.0
 40
0.9748775839689326
 40
1.0
 40
1.0
 40
1.0
 40
1.0
 10
63.58957033488434
 20
66.4246126863505
 30
0.0
 10
63.60773536632283
 20
66.4535403191986
 30
0.0
 10
63.62636850728042
 20
66.48321341182455
 30
0.0
 10
63.64705616746013
 20
66.51145742376416
 30
0.0
 10
63.64757589146586
 20
66.51216698158248
 30
0.0
  0
SPLINE
  5
72
330
1F
100
AcDbEntity
  8
0
  6
Continuous
 62
     7
370
    15
100
AcDbSpline
210
0.0
220
0.0
230
1.0
 70
     8
 71
     3
 72
     9
 73
     5
 74
     0
 42
0.000000001
 43
0.00000001
 40
0.0
 40
0.0
 40
0.0
 40
0.0
 40
0.7173590355845287
 40
1.0
 40
1.0
 40
1.0
 40
1.0
 10
63.64819848427362
 20
65.10222321603985
 30
0.0
 10
63.63530880078833
 20
65.11913476774922
 30
0.0
 10
63.6173405549785
 20
65.1427095062978
 30
0.0
 10
63.60242804207161
 20
65.16828894533758
 30
0.0
 10
63.59821315504174
 20
65.17551874265699
 30
0.0
  0
SPLINE
  5
73
330
1F
100
AcDbEntity
  8
0
  6
Continuous
 62
     7
370
    15
100
AcDbSpline
210
0.0
220
0.0
230
1.0
 70
     8
 71
     3
 72
     9
 73
     5
 74
     0
 42
0.000000001
 43
0.00000001
 40
0.0
 40
0.0
 40
0.0
 40
0.0
 40
0.9748760313015581
 40
1.0
 40
1.0
 40
1.0
 40
1.0
 10
63.73823215086369
 20
65.04066968711146
 30
0.0
 10
63.70930615068928
 20
65.05883726431276
 30
0.0
 10
63.67963468555356
 20
65.07747304631783
 30
0.0
 10
63.65138653463634
 20
65.09815547240245
 30
0.0
 10
63.65067682897691
 20
65.09867509702802
 30
0.0
  0
SPLINE
  5
74
330
1F
100
AcDbEntity
  8
0
  6
Continuous
 62
     7
370
    15
100
AcDbSpline
210
0.0
220
0.0
230
1.0
 70
     8
 71
     3
 72
     9
 73
     5
 74
     0
 42
0.000000001
 43
0.00000001
 40
0.0
 40
0.0
 40
0.0
 40
0.0
 40
0.7173585488441561
 40
1.0
 40
1.0
 40
1.0
 40
1.0
 10
65.06062118117943
 20
65.09929754317079
 30
0.0
 10
65.04370954704618
 20
65.0864080280045
 30
0.0
 10
65.02013467760257
 20
65.0684400046401
 30
0.0
 10
64.99455537170216
 20
65.05352730708228
 30
0.0
 10
64.98732559956291
 20
65.04931236060389
 30
0.0
  0
SPLINE
  5
75
330
1F
100
AcDbEntity
  8
0
  6
Continuous
 62
     7
370
    15
100
AcDbSpline
210
0.0
220
0.0
230
1.0
 70
     8
 71
     3
 72
     9
 73
     5
 74
     0
 42
0.000000001
 43
0.00000001
 40
0.0
 40
0.0
 40
0.0
 40
0.0
 40
0.9748727964118332
 40
1.0
 40
1.0
 40
1.0
 40
1.0
 10
65.1221745267766
 20
65.18933164975579
 30
0.0
 10
65.10400817753057
 20
65.16040480222085
 30
0.0
 10
65.08537359329262
 20
65.13073236942616
 30
0.0
 10
65.06468868737112
 20
65.10248593510974
 30
0.0
 10
65.06416893352883
 20
65.10177618120403
 30
0.0
  0
SPLINE
  5
76
330
1F
100
AcDbEntity
  8
0
  6
Continuous
 62
     7
370
    15
100
AcDbSpline
210
0.0
220
0.0
230
1.0
 70
     8
 71
     3
 72
     9
 73
     5
 74
     0
 42
0.000000001
 43
0.00000001
 40
0.0
 40
0.0
 40
0.0
 40
0.0
 40
0.7173603416583904
 40
1.0
 40
1.0
 40
1.0
 40
1.0
 10
65.0635464507198
 20
66.51172112006644
 30
0.0
 10
65.0764360711904
 20
66.49480934537252
 30
0.0
 10
65.09440419644359
 20
66.47123433890529
 30
0.0
 10
65.10931682477559
 20
66.44565479916277
 30
0.0
 10
65.11353172495231
 20
66.4384250067894
 30
0.0
  0
ARC
  5
77
330
1F
100
AcDbEntity
  8
0
  6
Continuous
 62
     7
370
    15
100
AcDbCircle
 10
65.0520704329
 20
65.1107755805
 30
0.0
 40
0.014984595998823
100
AcDbArc
 50
306.6514308804
 51
323.2793237158
  0
ARC
  5
78
330
1F
100
AcDbEntity
  8
0
  6
Continuous
 62
     7
370
    15
100
AcDbCircle
 10
63.6597012269
 20
66.5031455474
 30
0.0
 40
0.0150191925407542
100
AcDbArc
 50
126.6804852971
 51
143.2729026772
  0
ARC
  5
79
330
1F
100
AcDbEntity
  8
0
  6
Continuous
 62
     7
370
    15
100
AcDbCircle
 10
65.052026755
 20
66.5031259509
 30
0.0
 40
0.0150449647677264
100
AcDbArc
 50
36.6912385049
 51
53.2528884269
  0
ARC
  5
7A
330
1F
100
AcDbEntity
  8
0
  6
Continuous
 62
     7
370
    15
100
AcDbCircle
 10
63.6596791034
 20
65.1107772635
 30
0.0
 40
0.0149891074579899
100
AcDbArc
 50
216.6543182651
 51
233.2798749511
  0
CIRCLE
  5
7B
330
1F
100
AcDbEntity
  8
0
  6
Continuous
 62
     7
370
    15
100
AcDbCircle
 10
59.5738370158
 20
54.746471794
 30
0.0
 40
2.409999999999999
  0
CIRCLE
  5
7C
330
1F
100
AcDbEntity
  8
0
  6
Continuous
 62
     7
370
    15
100
AcDbCircle
 10
59.5738370158
 20
54.746471794
 30
0.0
 40
1.939999999999999
  0
CIRCLE
  5
7D
330
1F
100
AcDbEntity
  8
0
  6
Continuous
 62
     7
370
    15
100
AcDbCircle
 10
69.0069078758
 20
54.746471794
 30
0.0
 40
2.410000000000001
  0
CIRCLE
  5
7E
330
1F
100
AcDbEntity
  8
0
  6
Continuous
 62
     7
370
    15
100
AcDbCircle
 10
69.0069078758
 20
54.746471794
 30
0.0
 40
1.940000000000008
  0
LINE
  5
7F
330
1F
100
AcDbEntity
  8
0
  6
Continuous
 62
     7
370
    15
100
AcDbLine
 10
67.8258471171
 20
72.7332163955
 30
0.0
 11
67.8275337642
 21
72.7357507662
 31
0.0
  0
LINE
  5
80
330
1F
100
AcDbEntity
  8
0
  6
Continuous
 62
     7
370
    15
100
AcDbLine
 10
67.7577889966
 20
72.6012190937
 30
0.0
 11
67.8258471171
 21
72.7332163955
 31
0.0
  0
SPLINE
  5
81
330
1F
100
AcDbEntity
  8
0
  6
Continuous
 62
     7
370
    15
100
AcDbSpline
210
0.0
220
0.0
230
1.0
 70
     8
 71
     3
 72
    16
 73
    12
 74
     0
 42
0.000000001
 43
0.00000001
 40
0.0
 40
0.0
 40
0.0
 40
0.0
 40
0.0831071949956895
 40
0.1667036687450303
 40
0.3367814322417818
 40
0.508047842265027
 40
0.6299528184768476
 40
0.7518565183678331
 40
0.8347089277442119
 40
0.917559133859805
 40
1.0
 40
1.0
 40
1.0
 40
1.0
 10
65.46848834779645
 20
70.15767153506947
 30
0.0
 10
65.51770357677745
 20
70.22452407400553
 30
0.0
 10
65.61642378060198
 20
70.35862273424955
 30
0.0
 10
65.85152176780383
 20
70.61045205019887
 30
0.0
 10
66.15438612200252
 20
70.9454200469144
 30
0.0
 10
66.51162392258662
 20
71.31465349161853
 30
0.0
 10
66.8470647423647
 20
71.64953753134189
 30
0.0
 10
67.11744236779788
 20
71.91826856613338
 30
0.0
 10
67.36215318897659
 20
72.15465438750853
 30
0.0
 10
67.57392933561148
 20
72.36326344669928
 30
0.0
 10
67.69660370980058
 20
72.52203160671591
 30
0.0
 10
67.7577889966
 20
72.60121909366622
 30
0.0
  0
LINE
  5
82
330
1F
100
AcDbEntity
  8
0
  6
Continuous
 62
     7
370
    15
100
AcDbLine
 10
65.4684883478
 20
70.1576715351
 30
0.0
 11
63.2432564955
 21
70.1576715351
 31
0.0
  0
SPLINE
  5
83
330
1F
100
AcDbEntity
  8
0
  6
Continuous
 62
     7
370
    15
100
AcDbSpline
210
0.0
220
0.0
230
1.0
 70
     8
 71
     3
 72
    16
 73
    12
 74
     0
 42
0.000000001
 43
0.00000001
 40
0.0
 40
0.0
 40
0.0
 40
0.0
 40
0.0353671928174026
 40
0.1495234807923126
 40
0.2640137099550887
 40
0.378692384130647
 40
0.4931063475935563
 40
0.6637784564595394
 40
0.8344492818371861
 40
0.9172767395413925
 40
1.0
 40
1.0
 40
1.0
 40
1.0
 10
60.95395604839215
 20
72.60121909366622
 30
0.0
 10
60.97991147140191
 20
72.56701815465557
 30
0.0
 10
61.0896443872681
 20
72.42242529783373
 30
0.0
 10
61.3069576916896
 20
72.19020909871685
 30
0.0
 10
61.59371893567889
 20
71.90201110772945
 30
0.0
 10
61.88359310904013
 20
71.62673404109465
 30
0.0
 10
62.20887975116987
 20
71.30728086649123
 30
0.0
 10
62.55929820138725
 20
70.94312781416546
 30
0.0
 10
62.86228332214113
 20
70.60942166886794
 30
0.0
 10
63.09517716348557
 20
70.35648529131731
 30
0.0
 10
63.19391743381665
 20
70.22391497399998
 30
0.0
 10
63.24325649553136
 20
70.15767153506947
 30
0.0
  0
LINE
  5
84
330
1F
100
AcDbEntity
  8
0
  6
Continuous
 62
     7
370
    15
100
AcDbLine
 10
60.8858976346
 20
72.7332163955
 30
0.0
 11
60.9539560484
 21
72.6012190937
 31
0.0
  0
LINE
  5
85
330
1F
100
AcDbEntity
  8
0
  6
Continuous
 62
     7
370
    15
100
AcDbLine
 10
60.8842109874
 20
72.7357507662
 30
0.0
 11
60.8858976346
 21
72.7332163955
 31
0.0
  0
LINE
  5
86
330
1F
100
AcDbEntity
  8
0
  6
Continuous
 62
     7
370
    15
100
AcDbLine
 10
67.8275337642
 20
72.7357507662
 30
0.0
 11
60.8842109874
 21
72.7357507662
 31
0.0
  0
ARC
  5
87
330
1F
100
AcDbEntity
  8
0
  6
Continuous
 62
     7
370
    15
100
AcDbCircle
 10
67.69342173
 20
72.5067203291
 30
0.0
 40
0.1143379268516418
100
AcDbArc
 50
53.6487562238
 51
55.7395005814
  0
SPLINE
  5
88
330
1F
100
AcDbEntity
  8
0
  6
Continuous
 62
     7
370
    15
100
AcDbSpline
210
0.0
220
0.0
230
1.0
 70
     8
 71
     3
 72
    16
 73
    12
 74
     0
 42
0.000000001
 43
0.00000001
 40
0.0
 40
0.0
 40
0.0
 40
0.0
 40
0.0353943962947492
 40
0.1493378953673445
 40
0.2636171338693398
 40
0.3780883896484376
 40
0.4922944264283788
 40
0.6629409555638283
 40
0.8335864606771115
 40
0.9168465465562948
 40
1.0
 40
1.0
 40
1.0
 40
1.0
 10
67.76119367726884
 20
72.59880792152028
 30
0.0
 10
67.735356916219
 20
72.56449337643407
 30
0.0
 10
67.62634509733782
 20
72.41971164598762
 30
0.0
 10
67.41004486296069
 20
72.18733186454372
 30
0.0
 10
67.12451609995694
 20
71.89915995309623
 30
0.0
 10
66.83568831990796
 20
71.62401911934772
 30
0.0
 10
66.51128417954814
 20
71.3045715488917
 30
0.0
 10
66.16158245833991
 20
70.9403016399593
 30
0.0
 10
65.85881883287806
 20
70.60602069843165
 30
0.0
 10
65.62536429596504
 20
70.35249183565332
 30
0.0
 10
65.52607014211196
 20
70.21929632632576
 30
0.0
 10
65.47645487743308
 20
70.15274124535792
 30
0.0
  0
SPLINE
  5
89
330
1F
100
AcDbEntity
  8
0
  6
Continuous
 62
     7
370
    15
100
AcDbSpline
210
0.0
220
0.0
230
1.0
 70
     8
 71
     3
 72
    10
 73
     6
 74
     0
 42
0.000000001
 43
0.00000001
 40
0.0
 40
0.0
 40
0.0
 40
0.0
 40
0.1545690075820075
 40
0.5006856096610025
 40
1.0
 40
1.0
 40
1.0
 40
1.0
 10
65.47645487743308
 20
70.15274124535792
 30
0.0
 10
65.47609651166026
 20
70.1530581842876
 30
0.0
 10
65.47493568007923
 20
70.15408482451589
 30
0.0
 10
65.47233878571771
 20
70.15595420744395
 30
0.0
 10
65.46994937263288
 20
70.15702871440337
 30
0.0
 10
65.46853817722082
 20
70.15766332183101
 30
0.0
  0
SPLINE
  5
8A
330
1F
100
AcDbEntity
  8
0
  6
Continuous
 62
     7
370
    15
100
AcDbSpline
210
0.0
220
0.0
230
1.0
 70
     8
 71
     3
 72
     9
 73
     5
 74
     0
 42
0.000000001
 43
0.00000001
 40
0.0
 40
0.0
 40
0.0
 40
0.0
 40
0.7219872808880771
 40
1.0
 40
1.0
 40
1.0
 40
1.0
 10
65.46853817722082
 20
70.15766332183101
 30
0.0
 10
65.46852645710314
 20
70.15766704788612
 30
0.0
 10
65.4685102239672
 20
70.15767220871817
 30
0.0
 10
65.46849310663306
 20
70.15767168161175
 30
0.0
 10
65.46848834779645
 20
70.15767153506947
 30
0.0
  0
ARC
  5
8B
330
1F
100
AcDbEntity
  8
0
  6
Continuous
 62
     7
370
    15
100
AcDbCircle
 10
61.0173175111
 20
59.1058031812
 30
0.0
 40
0.1125978989996259
100
AcDbArc
 50
233.6325997655
 51
235.75565704
  0
SPLINE
  5
8C
330
1F
100
AcDbEntity
  8
0
  6
Continuous
 62
     7
370
    15
100
AcDbSpline
210
0.0
220
0.0
230
1.0
 70
     8
 71
     3
 72
    16
 73
    12
 74
     0
 42
0.000000001
 43
0.00000001
 40
0.0
 40
0.0
 40
0.0
 40
0.0
 40
0.0311450595383768
 40
0.1429285783333181
 40
0.2550528212446197
 40
0.3673876476314531
 40
0.4794588651204802
 40
0.6500847967026252
 40
0.82071016153579
 40
0.9104156086519083
 40
1.0
 40
1.0
 40
1.0
 40
1.0
 10
60.95055136772331
 20
59.01513582792612
 30
0.0
 10
60.97316804569407
 20
59.04542736830704
 30
0.0
 10
61.07695881305476
 20
59.18443904034564
 30
0.0
 10
61.28525906091068
 20
59.41051630845744
 30
0.0
 10
61.56550177192604
 20
59.69375996550269
 30
0.0
 10
61.84967184143346
 20
59.96381894746513
 30
0.0
 10
62.17178714805055
 20
60.2800217243966
 30
0.0
 10
62.52127289495453
 20
60.64320403332645
 30
0.0
 10
62.83027495172671
 20
60.98316292965966
 30
0.0
 10
63.07442006884413
 20
61.24616374588632
 30
0.0
 10
63.18169079757536
 20
61.38955479926607
 30
0.0
 10
63.2352899475616
 20
61.46120191742858
 30
0.0
  0
SPLINE
  5
8D
330
1F
100
AcDbEntity
  8
0
  6
Continuous
 62
     7
370
    15
100
AcDbSpline
210
0.0
220
0.0
230
1.0
 70
     8
 71
     3
 72
    10
 73
     6
 74
     0
 42
0.000000001
 43
0.00000001
 40
0.0
 40
0.0
 40
0.0
 40
0.0
 40
0.1544955863356356
 40
0.5006625590308332
 40
1.0
 40
1.0
 40
1.0
 40
1.0
 10
63.2352899475616
 20
61.46120191742858
 30
0.0
 10
63.23564836308084
 20
61.46088542202764
 30
0.0
 10
63.23680985406785
 20
61.45985977850532
 30
0.0
 10
63.23940567826662
 20
61.45798915701141
 30
0.0
 10
63.24179543509094
 20
61.45691487586741
 30
0.0
 10
63.24320677610572
 20
61.45628042761539
 30
0.0
  0
SPLINE
  5
8E
330
1F
100
AcDbEntity
  8
0
  6
Continuous
 62
     7
370
    15
100
AcDbSpline
210
0.0
220
0.0
230
1.0
 70
     8
 71
     3
 72
     9
 73
     5
 74
     0
 42
0.000000001
 43
0.00000001
 40
0.0
 40
0.0
 40
0.0
 40
0.0
 40
0.7208890860470475
 40
1.0
 40
1.0
 40
1.0
 40
1.0
 10
63.24320677610572
 20
61.45628042761539
 30
0.0
 10
63.24321845673165
 20
61.45627688511548
 30
0.0
 10
63.24323465981495
 20
61.45627197104483
 30
0.0
 10
63.2432517308259
 20
61.45627170263356
 30
0.0
 10
63.24325649553136
 20
61.45627162771704
 30
0.0
  0
SPLINE
  5
8F
330
1F
100
AcDbEntity
  8
0
  6
Continuous
 62
     7
370
    15
100
AcDbSpline
210
0.0
220
0.0
230
1.0
 70
     8
 71
     3
 72
    16
 73
    12
 74
     0
 42
0.000000001
 43
0.00000001
 40
0.0
 40
0.0
 40
0.0
 40
0.0
 40
0.0895249098426822
 40
0.1795790208866548
 40
0.3496407409551814
 40
0.5208899165992745
 40
0.6396534863632325
 40
0.7584155309551702
 40
0.8390752385381264
 40
0.9197321395659991
 40
1.0
 40
1.0
 40
1.0
 40
1.0
 10
63.24325649553136
 20
61.45627162771704
 30
0.0
 10
63.18979032861195
 20
61.38462223834672
 30
0.0
 10
63.08254194463899
 20
61.24089992449174
 30
0.0
 10
62.83799756022424
 20
60.97824349066155
 30
0.0
 10
62.52838317356177
 20
60.638125662613
 30
0.0
 10
62.17211805013066
 20
60.27079613757716
 30
0.0
 10
61.84069753941046
 20
59.94070837957006
 30
0.0
 10
61.57693817751318
 20
59.67870130296103
 30
0.0
 10
61.33874531780014
 20
59.44802695221836
 30
0.0
 10
61.13284596474649
 20
59.24449461102429
 30
0.0
 10
61.01348983813295
 20
59.08985669354359
 30
0.0
 10
60.95395604839215
 20
59.01272465578018
 30
0.0
  0
LINE
  5
90
330
1F
100
AcDbEntity
  8
0
  6
Continuous
 62
     7
370
    15
100
AcDbLine
 10
60.8858976346
 20
58.8807267673
 30
0.0
 11
60.8842109874
 21
58.8781923966
 31
0.0
  0
LINE
  5
91
330
1F
100
AcDbEntity
  8
0
  6
Continuous
 62
     7
370
    15
100
AcDbLine
 10
60.9539560484
 20
59.0127246558
 30
0.0
 11
60.8858976346
 21
58.8807267673
 31
0.0
  0
LINE
  5
92
330
1F
100
AcDbEntity
  8
0
  6
Continuous
 62
     7
370
    15
100
AcDbLine
 10
65.4684883478
 20
61.4562716277
 30
0.0
 11
63.2432564955
 21
61.4562716277
 31
0.0
  0
SPLINE
  5
93
330
1F
100
AcDbEntity
  8
0
  6
Continuous
 62
     7
370
    15
100
AcDbSpline
210
0.0
220
0.0
230
1.0
 70
     8
 71
     3
 72
    16
 73
    12
 74
     0
 42
0.000000001
 43
0.00000001
 40
0.0
 40
0.0
 40
0.0
 40
0.0
 40
0.0310471822686705
 40
0.1427792143070508
 40
0.2548483647403454
 40
0.3671236210019159
 40
0.4791374704199441
 40
0.6497855926879855
 40
0.8204325933370696
 40
0.9102764841984765
 40
1.0
 40
1.0
 40
1.0
 40
1.0
 10
67.75778899660001
 20
59.01272465578018
 30
0.0
 10
67.73512337355807
 20
59.04284641889132
 30
0.0
 10
67.63088912061676
 20
59.18136983249239
 30
0.0
 10
67.42206536769005
 20
59.40676368898889
 30
0.0
 10
67.14126964779241
 20
59.68940533744939
 30
0.0
 10
66.8567123186684
 20
59.95900495562533
 30
0.0
 10
66.53407379143484
 20
60.27482097332767
 30
0.0
 10
66.18393217966491
 20
60.63770406853067
 30
0.0
 10
65.87416202372947
 20
60.97759037289288
 30
0.0
 10
65.62959976164143
 20
61.2408175071029
 30
0.0
 10
65.52216814640843
 20
61.38448569071436
 30
0.0
 10
65.46848834779645
 20
61.45627162771704
 30
0.0
  0
LINE
  5
94
330
1F
100
AcDbEntity
  8
0
  6
Continuous
 62
     7
370
    15
100
AcDbLine
 10
67.8258471171
 20
58.8807267673
 30
0.0
 11
67.7577889966
 21
59.0127246558
 31
0.0
  0
LINE
  5
95
330
1F
100
AcDbEntity
  8
0
  6
Continuous
 62
     7
370
    15
100
AcDbLine
 10
67.8275337642
 20
58.8781923966
 30
0.0
 11
67.8258471171
 21
58.8807267673
 31
0.0
  0
LINE
  5
96
330
1F
100
AcDbEntity
  8
0
  6
Continuous
 62
     7
370
    15
100
AcDbLine
 10
60.8842109874
 20
58.8781923966
 30
0.0
 11
67.8275337642
 21
58.8781923966
 31
0.0
  0
SPLINE
  5
97
330
1F
100
AcDbEntity
  8
0
  6
Continuous
 62
     7
370
    15
100
AcDbSpline
210
0.0
220
0.0
230
1.0
 70
     8
 71
     3
 72
     9
 73
     5
 74
     0
 42
0.000000001
 43
0.00000001
 40
0.0
 40
0.0
 40
0.0
 40
0.0
 40
0.7211082257684807
 40
1.0
 40
1.0
 40
1.0
 40
1.0
 10
63.24325649553136
 20
70.15767153506947
 30
0.0
 10
63.24324392303144
 20
70.15767139715032
 30
0.0
 10
63.24322648806193
 20
70.15767120589035
 30
0.0
 10
63.24321107475129
 20
70.15766504113152
 30
0.0
 10
63.24320677610572
 20
70.15766332183101
 30
0.0
  0
SPLINE
  5
98
330
1F
100
AcDbEntity
  8
0
  6
Continuous
 62
     7
370
    15
100
AcDbSpline
210
0.0
220
0.0
230
1.0
 70
     8
 71
     3
 72
    10
 73
     6
 74
     0
 42
0.000000001
 43
0.00000001
 40
0.0
 40
0.0
 40
0.0
 40
0.0
 40
0.4504169751257143
 40
0.845466854124846
 40
1.0
 40
1.0
 40
1.0
 40
1.0
 10
63.24320677610572
 20
70.15766332183101
 30
0.0
 10
63.24193482787268
 20
70.1570989542925
 30
0.0
 10
63.23954728448382
 20
70.15603959358074
 30
0.0
 10
63.23692286424966
 20
70.15418517874004
 30
0.0
 10
63.23564832557256
 20
70.1530581469961
 30
0.0
 10
63.2352899475616
 20
70.15274124535792
 30
0.0
  0
SPLINE
  5
99
330
1F
100
AcDbEntity
  8
0
  6
Continuous
 62
     7
370
    15
100
AcDbSpline
210
0.0
220
0.0
230
1.0
 70
     8
 71
     3
 72
    16
 73
    12
 74
     0
 42
0.000000001
 43
0.00000001
 40
0.0
 40
0.0
 40
0.0
 40
0.0
 40
0.0824106732650341
 40
0.1652918254871247
 40
0.3353500690369594
 40
0.5065942226066527
 40
0.6288515332697432
 40
0.7511077079778095
 40
0.8342112440604347
 40
0.9173128427242516
 40
1.0
 40
1.0
 40
1.0
 40
1.0
 10
63.2352899475616
 20
70.15274124535792
 30
0.0
 10
63.18641353477644
 20
70.21898739053145
 30
0.0
 10
63.08838167588676
 20
70.35185787724623
 30
0.0
 10
62.85498438109723
 20
70.60274400668187
 30
0.0
 10
62.55326401303235
 20
70.93721225553553
 30
0.0
 10
62.19663686577046
 20
71.30693292197374
 30
0.0
 10
61.86138465439225
 20
71.64267116323487
 30
0.0
 10
61.59083075211112
 20
71.91250827812013
 30
0.0
 10
61.34599543612478
 20
72.14998480979061
 30
0.0
 10
61.13416723330356
 20
72.35964933674616
 30
0.0
 10
61.01165456987716
 20
72.51922136016242
 30
0.0
 10
60.95055136772331
 20
72.59880792152028
 30
0.0
  0
ARC
  5
9A
330
1F
100
AcDbEntity
  8
0
  6
Continuous
 62
     7
370
    15
100
AcDbCircle
 10
61.0178686191
 20
72.5073623795
 30
0.0
 40
0.1135513077669616
100
AcDbArc
 50
124.2532568607
 51
126.358486334
  0
SPLINE
  5
9B
330
1F
100
AcDbEntity
  8
0
  6
Continuous
 62
     7
370
    15
100
AcDbSpline
210
0.0
220
0.0
230
1.0
 70
     8
 71
     3
 72
     9
 73
     5
 74
     0
 42
0.000000001
 43
0.00000001
 40
0.0
 40
0.0
 40
0.0
 40
0.0
 40
0.7232712120417781
 40
1.0
 40
1.0
 40
1.0
 40
1.0
 10
65.46848834779645
 20
61.45627162771704
 30
0.0
 10
65.46850085668896
 20
61.45627246405382
 30
0.0
 10
65.46851815157405
 20
61.45627362037908
 30
0.0
 10
65.46853383669603
 20
61.45627895215853
 30
0.0
 10
65.46853817722082
 20
61.45628042761539
 30
0.0
  0
SPLINE
  5
9C
330
1F
100
AcDbEntity
  8
0
  6
Continuous
 62
     7
370
    15
100
AcDbSpline
210
0.0
220
0.0
230
1.0
 70
     8
 71
     3
 72
    10
 73
     6
 74
     0
 42
0.000000001
 43
0.00000001
 40
0.0
 40
0.0
 40
0.0
 40
0.0
 40
0.451372973834832
 40
0.8455368442350382
 40
1.0
 40
1.0
 40
1.0
 40
1.0
 10
65.46853817722082
 20
61.45628042761539
 30
0.0
 10
65.4698128585083
 20
61.45684606169834
 30
0.0
 10
65.47220066206704
 20
61.45790563877808
 30
0.0
 10
65.47482345557029
 20
61.4597614191995
 30
0.0
 10
65.47609646740862
 20
61.46088545176308
 30
0.0
 10
65.47645487743308
 20
61.46120191742858
 30
0.0
  0
SPLINE
  5
9D
330
1F
100
AcDbEntity
  8
0
  6
Continuous
 62
     7
370
    15
100
AcDbSpline
210
0.0
220
0.0
230
1.0
 70
     8
 71
     3
 72
    16
 73
    12
 74
     0
 42
0.000000001
 43
0.00000001
 40
0.0
 40
0.0
 40
0.0
 40
0.0
 40
0.0893935691738151
 40
0.1792985124994606
 40
0.34934132562541
 40
0.5205686912655975
 40
0.6394077809747454
 40
0.7582452458943056
 40
0.8389627987832261
 40
0.9196773430052871
 40
1.0
 40
1.0
 40
1.0
 40
1.0
 10
65.47645487743308
 20
61.46120191742858
 30
0.0
 10
65.52995678442308
 20
61.38973921811888
 30
0.0
 10
65.63726665500825
 20
61.24640501853554
 30
0.0
 10
65.88088975314169
 20
60.98371497621252
 30
0.0
 10
66.18994184308305
 20
60.64364194510384
 30
0.0
 10
66.54551746199063
 20
60.27598119799486
 30
0.0
 10
66.87639490344512
 20
59.94545059821
 30
0.0
 10
67.13976623793556
 20
59.68293644109725
 30
0.0
 10
67.3775248394214
 20
59.45168555502237
 30
0.0
 10
67.58296606427545
 20
59.24755107014521
 30
0.0
 10
67.70188093350302
 20
59.09248178727264
 30
0.0
 10
67.76119367726885
 20
59.01513582792612
 30
0.0
  0
ARC
  5
9E
330
1F
100
AcDbEntity
  8
0
  6
Continuous
 62
     7
370
    15
100
AcDbCircle
 10
67.6939827638
 20
59.1064312162
 30
0.0
 40
0.1133673445452349
100
AcDbArc
 50
304.2515485712
 51
306.3601946234
  0
LWPOLYLINE
  5
9F
330
1F
100
AcDbEntity
  8
0
  6
Continuous
 62
     7
370
    15
100
AcDbPolyline
 90
        9
 70
   128
 43
0.0
 10
60.9505513677
 20
59.0151358279
 10
60.9504061694
 20
59.015133188
 10
60.9502612644
 20
59.015130548
 10
60.9501166527
 20
59.0151282013
 10
60.9499723344
 20
59.0151255614
 10
60.9498286027
 20
59.0151229214
 10
60.9496851644
 20
59.0151205748
 10
60.9495423127
 20
59.0151179348
 10
60.9493997544
 20
59.0151152948
  0
SPLINE
  5
A0
330
1F
100
AcDbEntity
  8
0
  6
Continuous
 62
     7
370
    15
100
AcDbSpline
210
0.0
220
0.0
230
1.0
 70
     8
 71
     3
 72
    19
 73
    15
 74
     0
 42
0.000000001
 43
0.00000001
 40
0.0
 40
0.0
 40
0.0
 40
0.0
 40
0.0027103405676829
 40
0.0379788687059755
 40
0.073497520802945
 40
0.1090327004973444
 40
0.2363526528441745
 40
0.3639484349055179
 40
0.491356548382665
 40
0.6268982596228896
 40
0.7626612269251734
 40
0.8981987653697903
 40
0.9999500932772226
 40
1.0
 40
1.0
 40
1.0
 40
1.0
 10
60.94939975436018
 20
59.01511529482998
 30
0.0
 10
60.94936295083097
 20
59.01890683126356
 30
0.0
 10
60.94884723837019
 20
59.07203604540059
 30
0.0
 10
60.95904037112989
 20
59.17490577034429
 30
0.0
 10
60.99075366173804
 20
59.31984545113812
 30
0.0
 10
61.06034520118462
 20
59.58686543690699
 30
0.0
 10
61.16698738512571
 20
59.97434305124865
 30
0.0
 10
61.32734937674351
 20
60.46938524253583
 30
0.0
 10
61.49852947214703
 20
60.96044732817894
 30
0.0
 10
61.67554553907693
 20
61.44493410690506
 30
0.0
 10
61.85640748640556
 20
61.91934866987813
 30
0.0
 10
62.02445265472196
 20
62.33072827123451
 30
0.0
 10
62.12491750202268
 20
62.58279518783447
 30
0.0
 10
62.16341016593235
 20
62.6900979434044
 30
0.0
 10
62.16342903645698
 20
62.69015054717581
 30
0.0
  0
SPLINE
  5
A1
330
1F
100
AcDbEntity
  8
0
  6
Continuous
 62
     7
370
    15
100
AcDbSpline
210
0.0
220
0.0
230
1.0
 70
     8
 71
     3
 72
    11
 73
     7
 74
     0
 42
0.000000001
 43
0.00000001
 40
0.0
 40
0.0
 40
0.0
 40
0.0
 40
0.0745239436673111
 40
0.1855858373838072
 40
0.5927990449719233
 40
1.0
 40
1.0
 40
1.0
 40
1.0
 10
62.17131755866144
 20
62.68300796302088
 30
0.0
 10
62.17104767556374
 20
62.6831440811538
 30
0.0
 10
62.17037558981229
 20
62.68348305405886
 30
0.0
 10
62.16833456230372
 20
62.68466961772569
 30
0.0
 10
62.1654591974519
 20
62.68686522940848
 30
0.0
 10
62.16410575000126
 20
62.68905545223706
 30
0.0
 10
62.16342903645698
 20
62.69015054717581
 30
0.0
  0
SPLINE
  5
A2
330
1F
100
AcDbEntity
  8
0
  6
Continuous
 62
     7
370
    15
100
AcDbSpline
210
0.0
220
0.0
230
1.0
 70
     8
 71
     3
 72
    20
 73
    16
 74
     0
 42
0.000000001
 43
0.00000001
 40
0.0
 40
0.0
 40
0.0
 40
0.0
 40
0.0071533167995534
 40
0.0357680621409145
 40
0.0429918786201563
 40
0.1019464876219081
 40
0.237464766382934
 40
0.373201883894803
 40
0.5087171627049345
 40
0.6361366527487504
 40
0.7637423741396584
 40
0.8910765320427414
 40
0.945197415895028
 40
0.972647762224765
 40
1.0
 40
1.0
 40
1.0
 40
1.0
 10
62.17131755866144
 20
62.68300796302088
 30
0.0
 10
62.16862199483485
 20
62.67545838838961
 30
0.0
 10
62.15514361869744
 20
62.63770895520842
 30
0.0
 10
62.1389835283458
 20
62.59186350407538
 30
0.0
 10
62.10138561430902
 20
62.49094171710925
 30
0.0
 10
62.01024024624077
 20
62.27859995099358
 30
0.0
 10
61.8647677566313
 20
61.91280817747318
 30
0.0
 10
61.6824343492865
 20
61.4401855182101
 30
0.0
 10
61.50527648327004
 20
60.95651655772759
 30
0.0
 10
61.33295922461807
 20
60.46655674140467
 30
0.0
 10
61.17290120467815
 20
59.97214054235501
 30
0.0
 10
61.05377147264995
 20
59.56177576857084
 30
0.0
 10
60.98631003661933
 20
59.27923870233184
 30
0.0
 10
60.95544013407204
 20
59.13008571443924
 30
0.0
 10
60.95217901046585
 20
59.0534066993879
 30
0.0
 10
60.95055136772331
 20
59.01513582792612
 30
0.0
  0
SPLINE
  5
A3
330
1F
100
AcDbEntity
  8
0
  6
Continuous
 62
     7
370
    15
100
AcDbSpline
210
0.0
220
0.0
230
1.0
 70
     8
 71
     3
 72
    20
 73
    16
 74
     0
 42
0.000000001
 43
0.00000001
 40
0.0
 40
0.0
 40
0.0
 40
0.0
 40
0.002159073180446
 40
0.0305675137566826
 40
0.0590799709323968
 40
0.1161473744039692
 40
0.2338497267305774
 40
0.3596143786624527
 40
0.4853903966722055
 40
0.6276918356353423
 40
0.7700000182243097
 40
0.8635014352750727
 40
0.9570082019049669
 40
0.9902557975080717
 40
1.0
 40
1.0
 40
1.0
 40
1.0
 10
67.76119367726884
 20
59.01513582792612
 30
0.0
 10
67.76122922639773
 20
59.01815389989413
 30
0.0
 10
67.76173252035557
 20
59.06088286213428
 30
0.0
 10
67.75332166530907
 20
59.14346792144438
 30
0.0
 10
67.72142368371769
 20
59.29918878535794
 30
0.0
 10
67.65389709294247
 20
59.57383296264243
 30
0.0
 10
67.53723027240538
 20
59.97219261393034
 30
0.0
 10
67.3833175905736
 20
60.45018574632142
 30
0.0
 10
67.21107583775617
 20
60.94537268264801
 30
0.0
 10
67.02715704965424
 20
61.44299947282032
 30
0.0
 10
66.8590449623839
 20
61.88254796478242
 30
0.0
 10
66.70976953306129
 20
62.24677847014332
 30
0.0
 10
66.61234320325707
 20
62.48179160554748
 30
0.0
 10
66.56026867293014
 20
62.62731341483485
 30
0.0
 10
66.5440936069647
 20
62.67271710005857
 30
0.0
 10
66.54042748633071
 20
62.68300796302088
 30
0.0
  0
SPLINE
  5
A4
330
1F
100
AcDbEntity
  8
0
  6
Continuous
 62
     7
370
    15
100
AcDbSpline
210
0.0
220
0.0
230
1.0
 70
     8
 71
     3
 72
    10
 73
     6
 74
     0
 42
0.000000001
 43
0.00000001
 40
0.0
 40
0.0
 40
0.0
 40
0.0
 40
0.2466591395066168
 40
0.5031505284103283
 40
1.0
 40
1.0
 40
1.0
 40
1.0
 10
65.16715025721312
 20
61.93670090442371
 30
0.0
 10
65.19088734600685
 20
61.89814512464809
 30
0.0
 10
65.23930772399636
 20
61.81949666667414
 30
0.0
 10
65.34614918168222
 20
61.66699572964404
 30
0.0
 10
65.4246689097948
 20
61.54298830165482
 30
0.0
 10
65.47645487743308
 20
61.46120191742858
 30
0.0
  0
LWPOLYLINE
  5
A5
330
1F
100
AcDbEntity
  8
0
  6
Continuous
 62
     7
370
    15
100
AcDbPolyline
 90
       13
 70
   128
 43
0.0
 10
65.3339372742
 20
64.7593780033
 10
65.2205096416
 20
64.5955555758
 10
65.1200217416
 20
64.4275608231
 10
65.0327790545
 20
64.2559047261
 10
64.9590468146
 20
64.0811088254
 10
64.899049181
 20
63.9037040481
 10
64.8529685867
 20
63.7242307081
 10
64.8209450599
 20
63.5432338123
 10
64.8030759864
 20
63.3612636478
 10
64.7994156686
 20
63.1788740214
 10
64.8099752533
 20
62.9966187402
 10
64.8347226574
 20
62.8150521976
 10
64.8405428002
 20
62.7832024322
  0
LWPOLYLINE
  5
A6
330
1F
100
AcDbEntity
  8
0
  6
Continuous
 62
     7
370
    15
100
AcDbPolyline
 90
       13
 70
   128
 43
0.0
 10
66.3590719214
 20
63.1953327646
 10
66.2875710607
 20
63.3902100334
 10
66.2128927034
 20
63.5746201164
 10
66.1352159274
 20
63.7481194988
 10
66.0547269972
 20
63.910293412
 10
65.9716189239
 20
64.0607517272
 10
65.8860910619
 20
64.1991348219
 10
65.7983484856
 20
64.32511006
 10
65.7086016223
 20
64.4383758982
 10
65.6170657031
 20
64.5386601264
 10
65.5239603036
 20
64.625722214
 10
65.4295086481
 20
64.6993538967
 10
65.3339372742
 20
64.7593780033
  0
SPLINE
  5
A7
330
1F
100
AcDbEntity
  8
0
  6
Continuous
 62
     7
370
    15
100
AcDbSpline
210
0.0
220
0.0
230
1.0
 70
     8
 71
     3
 72
    11
 73
     7
 74
     0
 42
0.000000001
 43
0.00000001
 40
0.0
 40
0.0
 40
0.0
 40
0.0
 40
0.0638076904248106
 40
0.4893794126961861
 40
0.8423674077979555
 40
1.0
 40
1.0
 40
1.0
 40
1.0
 10
66.54042748633071
 20
62.68300796302088
 30
0.0
 10
66.53673709815303
 20
62.69445965115261
 30
0.0
 10
66.50843329986483
 20
62.78228950951254
 30
0.0
 10
66.45785905484091
 20
62.92928633342553
 30
0.0
 10
66.39800555357274
 20
63.085308893243
 30
0.0
 10
66.36825587971688
 20
63.16937950530029
 30
0.0
 10
66.35907192136568
 20
63.19533276460105
 30
0.0
  0
SPLINE
  5
A8
330
1F
100
AcDbEntity
  8
0
  6
Continuous
 62
     7
370
    15
100
AcDbSpline
210
0.0
220
0.0
230
1.0
 70
     8
 71
     3
 72
    11
 73
     7
 74
     0
 42
0.000000001
 43
0.00000001
 40
0.0
 40
0.0
 40
0.0
 40
0.0
 40
0.0436562584708936
 40
0.4968555295773496
 40
0.7533438274840468
 40
1.0
 40
1.0
 40
1.0
 40
1.0
 10
63.2352899475616
 20
61.46120191742858
 30
0.0
 10
63.23995160175884
 20
61.46838616594035
 30
0.0
 10
63.29300627813273
 20
61.55015069922737
 30
0.0
 10
63.36993145068374
 20
61.6736563261594
 30
0.0
 10
63.47249638893128
 20
61.81949581227344
 30
0.0
 10
63.52087703151213
 20
61.89814484328743
 30
0.0
 10
63.54459464111406
 20
61.93670090442371
 30
0.0
  0
SPLINE
  5
A9
330
1F
100
AcDbEntity
  8
0
  6
Continuous
 62
     7
370
    15
100
AcDbSpline
210
0.0
220
0.0
230
1.0
 70
     8
 71
     3
 72
    11
 73
     7
 74
     0
 42
0.000000001
 43
0.00000001
 40
0.0
 40
0.0
 40
0.0
 40
0.0
 40
0.1576325257120383
 40
0.5106206021481481
 40
0.9361923561718379
 40
1.0
 40
1.0
 40
1.0
 40
1.0
 10
62.35267290362901
 20
63.19533276460105
 30
0.0
 10
62.34348903234567
 20
63.16937950263857
 30
0.0
 10
62.31373962711621
 20
63.08530884405379
 30
0.0
 10
62.25388581958681
 20
62.92928634762495
 30
0.0
 10
62.20331131536364
 20
62.78228957601002
 30
0.0
 10
62.17500789498273
 20
62.69445965173192
 30
0.0
 10
62.17131755866144
 20
62.68300796302088
 30
0.0
  0
LWPOLYLINE
  5
AA
330
1F
100
AcDbEntity
  8
0
  6
Continuous
 62
     7
370
    15
100
AcDbPolyline
 90
       13
 70
   128
 43
0.0
 10
63.3778076745
 20
64.7593780033
 10
63.2822362319
 20
64.6993538967
 10
63.1877845763
 20
64.625722214
 10
63.0946791586
 20
64.5386601264
 10
63.0031432027
 20
64.4383758982
 10
62.9133964128
 20
64.32511006
 10
62.8256539464
 20
64.1991348219
 10
62.7401259744
 20
64.0607517272
 10
62.6570179745
 20
63.910293412
 10
62.5765288243
 20
63.7481194988
 10
62.4988521216
 20
63.5746201164
 10
62.4241738376
 20
63.3902100334
 10
62.3526729036
 20
63.1953327646
  0
LWPOLYLINE
  5
AB
330
1F
100
AcDbEntity
  8
0
  6
Continuous
 62
     7
370
    15
100
AcDbPolyline
 90
       13
 70
   128
 43
0.0
 10
63.8703696644
 20
62.7788365093
 10
63.8770222409
 20
62.8150521976
 10
63.9017696083
 20
62.9966187402
 10
63.912329193
 20
63.1788740214
 10
63.9086688753
 20
63.3612636478
 10
63.8907998017
 20
63.5432338123
 10
63.858776385
 20
63.7242307081
 10
63.8126957173
 20
63.9037040481
 10
63.7526980104
 20
64.0811088254
 10
63.6789658622
 20
64.2559047261
 10
63.5917230833
 20
64.4275608231
 10
63.4912352842
 20
64.5955555758
 10
63.3778076745
 20
64.7593780033
  0
SPLINE
  5
AC
330
1F
100
AcDbEntity
  8
0
  6
Continuous
 62
     7
370
    15
100
AcDbSpline
210
0.0
220
0.0
230
1.0
 70
     8
 71
     3
 72
    19
 73
    15
 74
     0
 42
0.000000001
 43
0.00000001
 40
0.0
 40
0.0
 40
0.0
 40
0.0
 40
0.0027237565535384
 40
0.0383516785151898
 40
0.0742479887902319
 40
0.1101626424261504
 40
0.2372003950111405
 40
0.3645067689679524
 40
0.491628135359147
 40
0.6254963382166263
 40
0.7595797576390411
 40
0.8934548482657148
 40
0.9570124821777142
 40
1.0
 40
1.0
 40
1.0
 40
1.0
 10
60.95055136772331
 20
72.59880792152028
 30
0.0
 10
60.95051365913298
 20
72.59500015406844
 30
0.0
 10
60.94998270575841
 20
72.5413851300004
 30
0.0
 10
60.96062563321912
 20
72.43753429014211
 30
0.0
 10
60.99360414316438
 20
72.29141291061437
 30
0.0
 10
61.06495753020096
 20
72.02445696249912
 30
0.0
 10
61.17287644396509
 20
71.63807926142212
 30
0.0
 10
61.33406265139737
 20
71.14522163358039
 30
0.0
 10
61.50496286549514
 20
70.65796498586185
 30
0.0
 10
61.68080975727993
 20
70.17868122477502
 30
0.0
 10
61.86122696264002
 20
69.71152275819713
 30
0.0
 10
62.00690165330769
 20
69.34368581696472
 30
0.0
 10
62.11556202294436
 20
69.08992106893373
 30
0.0
 10
62.15528900722558
 20
68.9766403149396
 30
0.0
 10
62.17131755866144
 20
68.93093519976563
 30
0.0
  0
SPLINE
  5
AD
330
1F
100
AcDbEntity
  8
0
  6
Continuous
 62
     7
370
    15
100
AcDbSpline
210
0.0
220
0.0
230
1.0
 70
     8
 71
     3
 72
    10
 73
     6
 74
     0
 42
0.000000001
 43
0.00000001
 40
0.0
 40
0.0
 40
0.0
 40
0.0
 40
0.2466587320027762
 40
0.5031507568515328
 40
1.0
 40
1.0
 40
1.0
 40
1.0
 10
63.54459464111406
 20
69.67724284502269
 30
0.0
 10
63.52085752359476
 20
69.71579836351309
 30
0.0
 10
63.47243698502986
 20
69.79444645414314
 30
0.0
 10
63.36559603842532
 20
69.946948206602
 30
0.0
 10
63.28707604099783
 20
70.07095521783688
 30
0.0
 10
63.2352899475616
 20
70.15274124535792
 30
0.0
  0
LWPOLYLINE
  5
AE
330
1F
100
AcDbEntity
  8
0
  6
Continuous
 62
     7
370
    15
100
AcDbPolyline
 90
       13
 70
   128
 43
0.0
 10
63.3778076745
 20
66.8545651595
 10
63.4912352842
 20
67.018387587
 10
63.5917230833
 20
67.1863823397
 10
63.6789658622
 20
67.3580390233
 10
63.7526980104
 20
67.5328355107
 10
63.8126957173
 20
67.7102391147
 10
63.858776385
 20
67.8897124547
 10
63.8907998017
 20
68.0707099372
 10
63.9086688753
 20
68.2526801017
 10
63.912329193
 20
68.4350691414
 10
63.9017696083
 20
68.6173244226
 10
63.8770222409
 20
68.7988909652
 10
63.8712021348
 20
68.8307407306
  0
LWPOLYLINE
  5
AF
330
1F
100
AcDbEntity
  8
0
  6
Continuous
 62
     7
370
    15
100
AcDbPolyline
 90
       13
 70
   128
 43
0.0
 10
62.3526729036
 20
68.4186109848
 10
62.4241738376
 20
68.2237331294
 10
62.4988521216
 20
68.0393236331
 10
62.5765288243
 20
67.865823664
 10
62.6570179745
 20
67.7036509241
 10
62.7401259744
 20
67.5531914356
 10
62.8256539464
 20
67.4148089275
 10
62.9133964128
 20
67.2888331028
 10
63.0031432027
 20
67.1755678513
 10
63.0946791586
 20
67.0752830364
 10
63.1877845763
 20
66.9882215355
 10
63.2822362319
 20
66.9145898528
 10
63.3778076745
 20
66.8545651595
  0
SPLINE
  5
B0
330
1F
100
AcDbEntity
  8
0
  6
Continuous
 62
     7
370
    15
100
AcDbSpline
210
0.0
220
0.0
230
1.0
 70
     8
 71
     3
 72
    11
 73
     7
 74
     0
 42
0.000000001
 43
0.00000001
 40
0.0
 40
0.0
 40
0.0
 40
0.0
 40
0.0680245619281089
 40
0.4893802655380851
 40
0.8388657327772803
 40
1.0
 40
1.0
 40
1.0
 40
1.0
 10
62.17131755866144
 20
68.93093519976563
 30
0.0
 10
62.17525265384993
 20
68.91872826800557
 30
0.0
 10
62.20356239776712
 20
68.83090952523358
 30
0.0
 10
62.2539432240889
 20
68.68456739618009
 30
0.0
 10
62.31351742241162
 20
68.52921216286437
 30
0.0
 10
62.34328064134566
 20
68.44514099393999
 30
0.0
 10
62.35267290362901
 20
68.41861098484534
 30
0.0
  0
SPLINE
  5
B1
330
1F
100
AcDbEntity
  8
0
  6
Continuous
 62
     7
370
    15
100
AcDbSpline
210
0.0
220
0.0
230
1.0
 70
     8
 71
     3
 72
    11
 73
     7
 74
     0
 42
0.000000001
 43
0.00000001
 40
0.0
 40
0.0
 40
0.0
 40
0.0
 40
0.0437359012489049
 40
0.4969356655847296
 40
0.7533836411752203
 40
1.0
 40
1.0
 40
1.0
 40
1.0
 10
65.47645487743308
 20
70.15274124535792
 30
0.0
 10
65.47178465631752
 20
70.14554409465082
 30
0.0
 10
65.41872071177262
 20
70.06376869332566
 30
0.0
 10
65.34179206728436
 20
69.94025589123024
 30
0.0
 10
65.23923629180389
 20
69.79442988658528
 30
0.0
 10
65.19086381357545
 20
69.71579291274112
 30
0.0
 10
65.16715025721312
 20
69.67724284502269
 30
0.0
  0
SPLINE
  5
B2
330
1F
100
AcDbEntity
  8
0
  6
Continuous
 62
     7
370
    15
100
AcDbSpline
210
0.0
220
0.0
230
1.0
 70
     8
 71
     3
 72
    19
 73
    15
 74
     0
 42
0.000000001
 43
0.00000001
 40
0.0
 40
0.0
 40
0.0
 40
0.0
 40
0.0128303231492617
 40
0.0429922108789103
 40
0.1380429319740977
 40
0.2330877886326413
 40
0.373854587860082
 40
0.5146144638894133
 40
0.6403914577153654
 40
0.7661570243741499
 40
0.8838599731332103
 40
0.9409277623031719
 40
0.9705248317667692
 40
1.0
 40
1.0
 40
1.0
 40
1.0
 10
66.54042748633071
 20
68.93093519976563
 30
0.0
 10
66.54524998718685
 20
68.9444936448206
 30
0.0
 10
66.56140935989777
 20
68.98992566724218
 30
0.0
 10
66.6143357831717
 20
69.13707666658235
 30
0.0
 10
66.71174741649595
 20
69.37217876261745
 30
0.0
 10
66.86178727377619
 20
69.73844573516992
 30
0.0
 10
67.02924418877024
 20
70.17652034147534
 30
0.0
 10
67.21173575799897
 20
70.6705093952684
 30
0.0
 10
67.38336583561215
 20
71.16375909243341
 30
0.0
 10
67.53705424811652
 20
71.64174719593929
 30
0.0
 10
67.6543749490562
 20
72.04012107933956
 30
0.0
 10
67.72113442252574
 20
72.31620502892137
 30
0.0
 10
67.75539226017895
 20
72.47492729488452
 30
0.0
 10
67.7592625337992
 20
72.55757122720298
 30
0.0
 10
67.76119367726884
 20
72.59880792152028
 30
0.0
  0
SPLINE
  5
B3
330
1F
100
AcDbEntity
  8
0
  6
Continuous
 62
     7
370
    15
100
AcDbSpline
210
0.0
220
0.0
230
1.0
 70
     8
 71
     3
 72
    11
 73
     7
 74
     0
 42
0.000000001
 43
0.00000001
 40
0.0
 40
0.0
 40
0.0
 40
0.0
 40
0.1611354266341462
 40
0.5106197128822244
 40
0.9319753908389028
 40
1.0
 40
1.0
 40
1.0
 40
1.0
 10
66.35907192136568
 20
68.41861098484534
 30
0.0
 10
66.3684641586655
 20
68.44514143898016
 30
0.0
 10
66.39822708301762
 20
68.52921340971889
 30
0.0
 10
66.45780204087693
 20
68.68456711202471
 30
0.0
 10
66.5081822283639
 20
68.83090960376931
 30
0.0
 10
66.53649233777868
 20
68.91872827062097
 30
0.0
 10
66.54042748633071
 20
68.93093519976563
 30
0.0
  0
LWPOLYLINE
  5
B4
330
1F
100
AcDbEntity
  8
0
  6
Continuous
 62
     7
370
    15
100
AcDbPolyline
 90
       13
 70
   128
 43
0.0
 10
65.3339372742
 20
66.8545651595
 10
65.4295086481
 20
66.9145898528
 10
65.5239603036
 20
66.9882215355
 10
65.6170657031
 20
67.0752830364
 10
65.7086016223
 20
67.1755678513
 10
65.7983484856
 20
67.2888331028
 10
65.8860910619
 20
67.4148089275
 10
65.9716189239
 20
67.5531914356
 10
66.0547269972
 20
67.7036509241
 10
66.1352159274
 20
67.865823664
 10
66.2128927034
 20
68.0393236331
 10
66.2875710607
 20
68.2237331294
 10
66.3590719214
 20
68.4186109848
  0
LWPOLYLINE
  5
B5
330
1F
100
AcDbEntity
  8
0
  6
Continuous
 62
     7
370
    15
100
AcDbPolyline
 90
       13
 70
   128
 43
0.0
 10
64.8413752706
 20
68.8351066535
 10
64.8347226574
 20
68.7988909652
 10
64.8099752533
 20
68.6173244226
 10
64.7994156686
 20
68.4350691414
 10
64.8030759864
 20
68.2526801017
 10
64.8209450599
 20
68.0707099372
 10
64.8529685867
 20
67.8897124547
 10
64.899049181
 20
67.7102391147
 10
64.9590468146
 20
67.5328355107
 10
65.0327790545
 20
67.3580390233
 10
65.1200217416
 20
67.1863823397
 10
65.2205096416
 20
67.018387587
 10
65.3339372742
 20
66.8545651595
  0
ARC
  5
B6
330
1F
100
AcDbEntity
  8
0
  6
Continuous
 62
     7
370
    15
100
AcDbCircle
 10
60.9474954442
 20
72.4556276183
 30
0.0
 40
0.1432129110889708
100
AcDbArc
 50
88.7773112757
 51
89.2381123253
  0
SPLINE
  5
B7
330
1F
100
AcDbEntity
  8
0
  6
Continuous
 62
     7
370
    15
100
AcDbSpline
210
0.0
220
0.0
230
1.0
 70
     8
 71
     3
 72
    11
 73
     7
 74
     0
 42
0.000000001
 43
0.00000001
 40
0.0
 40
0.0
 40
0.0
 40
0.0
 40
0.4072084424425939
 40
0.8144121480093994
 40
0.9254959532691572
 40
1.0
 40
1.0
 40
1.0
 40
1.0
 10
62.16342903645698
 20
68.92379320227059
 30
0.0
 10
62.16410576762063
 20
68.92488829044615
 30
0.0
 10
62.1654592220758
 20
68.92707845405856
 30
0.0
 10
62.16833436775264
 20
68.92927415554726
 30
0.0
 10
62.17037536797222
 20
68.93046078467701
 30
0.0
 10
62.1710476655218
 20
68.93079930224592
 30
0.0
 10
62.17131755866144
 20
68.93093519976563
 30
0.0
  0
SPLINE
  5
B8
330
1F
100
AcDbEntity
  8
0
  6
Continuous
 62
     7
370
    15
100
AcDbSpline
210
0.0
220
0.0
230
1.0
 70
     8
 71
     3
 72
    18
 73
    14
 74
     0
 42
0.000000001
 43
0.00000001
 40
0.0
 40
0.0
 40
0.0
 40
0.0
 40
0.000049805406461
 40
0.1064209104813954
 40
0.2403355647047073
 40
0.3744638565652239
 40
0.5083772908715132
 40
0.6355078261761684
 40
0.7628246562296377
 40
0.8898684914394872
 40
0.9445988957300977
 40
0.9723478971531546
 40
1.0
 40
1.0
 40
1.0
 40
1.0
 10
62.16342903645698
 20
68.92379320227059
 30
0.0
 10
62.16341016592705
 20
68.92384561047227
 30
0.0
 10
62.12308886109238
 20
69.03582800225387
 30
0.0
 10
62.02079514997791
 20
69.29125317400661
 30
0.0
 10
61.85299347821724
 20
69.70512852004826
 30
0.0
 10
61.67385767029855
 20
70.17392259742464
 30
0.0
 10
61.49839120459632
 20
70.65408479779477
 30
0.0
 10
61.32784819722247
 20
71.14223742219397
 30
0.0
 10
61.16917289588594
 20
71.63642149133264
 30
0.0
 10
61.05140100105088
 20
72.0476184619394
 30
0.0
 10
60.9848494250046
 20
72.33150920422858
 30
0.0
 10
60.95430256624969
 20
72.48255292553384
 30
0.0
 10
60.95103211827861
 20
72.56011477332716
 30
0.0
 10
60.94939975436018
 20
72.59882786795653
 30
0.0
  0
LWPOLYLINE
  5
B9
330
1F
100
AcDbEntity
  8
0
  6
Continuous
 62
     7
370
    15
100
AcDbPolyline
 90
        9
 70
   128
 43
0.0
 10
67.7623449973
 20
59.0151152948
 10
67.7622024389
 20
59.0151179348
 10
67.7620595873
 20
59.0151205748
 10
67.7619161489
 20
59.0151229214
 10
67.7617724172
 20
59.0151255614
 10
67.7616283922
 20
59.0151282013
 10
67.7614837806
 20
59.015130548
 10
67.7613388756
 20
59.015133188
 10
67.7611936773
 20
59.0151358279
  0
SPLINE
  5
BA
330
1F
100
AcDbEntity
  8
0
  6
Continuous
 62
     7
370
    15
100
AcDbSpline
210
0.0
220
0.0
230
1.0
 70
     8
 71
     3
 72
    11
 73
     7
 74
     0
 42
0.000000001
 43
0.00000001
 40
0.0
 40
0.0
 40
0.0
 40
0.0
 40
0.407211870266951
 40
0.8144220267343277
 40
0.9254854051603231
 40
1.0
 40
1.0
 40
1.0
 40
1.0
 10
66.5483158618702
 20
62.69015054717581
 30
0.0
 10
66.5476390802094
 20
62.68905546677173
 30
0.0
 10
66.54628551973612
 20
62.68686531057236
 30
0.0
 10
66.54341033323891
 20
62.68466956536728
 30
0.0
 10
66.54136932985936
 20
62.68348309794366
 30
0.0
 10
66.54069731752755
 20
62.683144085658
 30
0.0
 10
66.54042748633071
 20
62.68300796302088
 30
0.0
  0
SPLINE
  5
BB
330
1F
100
AcDbEntity
  8
0
  6
Continuous
 62
     7
370
    15
100
AcDbSpline
210
0.0
220
0.0
230
1.0
 70
     8
 71
     3
 72
    19
 73
    15
 74
     0
 42
0.000000001
 43
0.00000001
 40
0.0
 40
0.0
 40
0.0
 40
0.0
 40
0.0000499111272368
 40
0.009716247455459
 40
0.1198135794785659
 40
0.2299173606968174
 40
0.3722519974771049
 40
0.5145795778025851
 40
0.6403610122570839
 40
0.7661293081219551
 40
0.8838193850520614
 40
0.9408853376524412
 40
0.9705007270552986
 40
1.0
 40
1.0
 40
1.0
 40
1.0
 10
66.5483158618702
 20
62.69015054717581
 30
0.0
 10
66.54833473312335
 20
62.6900979438413
 30
0.0
 10
66.55200841824278
 20
62.67985760179012
 30
0.0
 10
66.59680483097834
 20
62.55287714456622
 30
0.0
 10
66.69442987954532
 20
62.30773108507665
 30
0.0
 10
66.85913485767394
 20
61.90754543055062
 30
0.0
 10
67.03425230997476
 20
61.44782029467297
 30
0.0
 10
67.21766781182703
 20
60.94920211235186
 30
0.0
 10
67.38929986444245
 20
60.45307191564207
 30
0.0
 10
67.54183528487057
 20
59.97410201900757
 30
0.0
 10
67.65775349425601
 20
59.57489717823437
 30
0.0
 10
67.7233122775808
 20
59.29824717388401
 30
0.0
 10
67.75667811727651
 20
59.13916515244329
 30
0.0
 10
67.7604585125176
 20
59.05641106390306
 30
0.0
 10
67.76234499730202
 20
59.01511529482998
 30
0.0
  0
ARC
  5
BC
330
1F
100
AcDbEntity
  8
0
  6
Continuous
 62
     7
370
    15
100
AcDbCircle
 10
67.7642344852
 20
72.4565281043
 30
0.0
 40
0.1423123076034931
100
AcDbArc
 50
90.7607414109
 51
91.2243405116
  0
SPLINE
  5
BD
330
1F
100
AcDbEntity
  8
0
  6
Continuous
 62
     7
370
    15
100
AcDbSpline
210
0.0
220
0.0
230
1.0
 70
     8
 71
     3
 72
    19
 73
    15
 74
     0
 42
0.000000001
 43
0.00000001
 40
0.0
 40
0.0
 40
0.0
 40
0.0
 40
0.0021618917658985
 40
0.0305924520636546
 40
0.0591223095995945
 40
0.116187999815655
 40
0.2338777415917353
 40
0.3596455435580908
 40
0.4854264859390708
 40
0.6262108389280834
 40
0.767002249991458
 40
0.8834786627336432
 40
0.9999501942859788
 40
1.0
 40
1.0
 40
1.0
 40
1.0
 10
67.76234499730202
 20
72.59882786795653
 30
0.0
 10
67.76237978278293
 20
72.59580382956995
 30
0.0
 10
67.76287202442698
 20
72.55301133142565
 30
0.0
 10
67.754655294239
 20
72.47031404230911
 30
0.0
 10
67.72359392111863
 20
72.31423984341079
 30
0.0
 10
67.6572860694838
 20
72.03903634333167
 30
0.0
 10
67.54200605114272
 20
71.63984547345454
 30
0.0
 10
67.38925811577501
 20
71.16086815376727
 30
0.0
 10
67.21833296410631
 20
70.66669452102838
 30
0.0
 10
67.03641591264753
 20
70.17167026842678
 30
0.0
 10
66.85941558373206
 20
69.70796962795485
 30
0.0
 10
66.69073241124252
 20
69.29486833630688
 30
0.0
 10
66.59248280583999
 20
69.04645547346858
 30
0.0
 10
66.54833473245965
 20
68.92384561045536
 30
0.0
 10
66.5483158618702
 20
68.92379320227059
 30
0.0
  0
SPLINE
  5
BE
330
1F
100
AcDbEntity
  8
0
  6
Continuous
 62
     7
370
    15
100
AcDbSpline
210
0.0
220
0.0
230
1.0
 70
     8
 71
     3
 72
    11
 73
     7
 74
     0
 42
0.000000001
 43
0.00000001
 40
0.0
 40
0.0
 40
0.0
 40
0.0
 40
0.0744949092599204
 40
0.1855606500646003
 40
0.5927794681142862
 40
1.0
 40
1.0
 40
1.0
 40
1.0
 10
66.54042748633071
 20
68.93093519976563
 30
0.0
 10
66.54069733264977
 20
68.93079930440406
 30
0.0
 10
66.54136949748461
 20
68.93046080031186
 30
0.0
 10
66.54341021344831
 20
68.92927394119944
 30
0.0
 10
66.5462855627043
 20
68.92707852599356
 30
0.0
 10
66.54763909453214
 20
68.92488831171454
 30
0.0
 10
66.5483158618702
 20
68.92379320227059
 30
0.0
  0
CIRCLE
  5
BF
330
1F
100
AcDbEntity
  8
0
  6
Continuous
 62
     7
370
    15
100
AcDbCircle
 10
66.8558724458
 20
58.650471794
 30
0.0
 40
0.125
  0
CIRCLE
  5
C0
330
1F
100
AcDbEntity
  8
0
  6
Continuous
 62
     7
370
    15
100
AcDbCircle
 10
66.8558724458
 20
58.650471794
 30
0.0
 40
0.1399999999999935
  0
LINE
  5
C1
330
1F
100
AcDbEntity
  8
0
  6
Continuous
 62
     7
370
    15
100
AcDbLine
 10
60.8833694238
 20
58.8790342535
 30
0.0
 11
60.8842124541
 21
58.8815700909
 31
0.0
  0
ARC
  5
C2
330
1F
100
AcDbEntity
  8
0
  6
Continuous
 62
     7
370
    15
100
AcDbCircle
 10
61.0172740726
 20
59.1453565395
 30
0.0
 40
0.2954465853942962
100
AcDbArc
 50
243.2322837259
 51
243.5977282414
  0
ARC
  5
C3
330
1F
100
AcDbEntity
  8
0
  6
Continuous
 62
     7
370
    15
100
AcDbCircle
 10
61.0863040675
 20
59.0810566246
 30
0.0
 40
0.2863485777706524
100
AcDbArc
 50
224.8709263472
 51
225.1091064885
  0
LINE
  5
C4
330
1F
100
AcDbEntity
  8
0
  6
Continuous
 62
     7
370
    15
100
AcDbLine
 10
59.864372582
 20
73.0669718999
 30
0.0
 11
59.864372582
 21
58.5469718495
 31
0.0
  0
LINE
  5
C5
330
1F
100
AcDbEntity
  8
0
  6
Continuous
 62
     7
370
    15
100
AcDbLine
 10
59.864372582
 20
58.5469718495
 30
0.0
 11
59.8493722753
 21
58.5469718495
 31
0.0
  0
LINE
  5
C6
330
1F
100
AcDbEntity
  8
0
  6
Continuous
 62
     7
370
    15
100
AcDbLine
 10
59.8493722753
 20
58.5469718495
 30
0.0
 11
59.8493722753
 21
73.0669718999
 31
0.0
  0
LINE
  5
C7
330
1F
100
AcDbEntity
  8
0
  6
Continuous
 62
     7
370
    15
100
AcDbLine
 10
59.864372582
 20
73.0669718999
 30
0.0
 11
59.8493722753
 21
73.0669718999
 31
0.0
  0
LINE
  5
C8
330
1F
100
AcDbEntity
  8
0
  6
Continuous
 62
     7
370
    15
100
AcDbLine
 10
60.8842124541
 20
58.8815700909
 30
0.0
 11
60.9493997544
 21
59.0151152948
 31
0.0
  0
ARC
  5
C9
330
1F
100
AcDbEntity
  8
0
  6
Continuous
 62
     7
370
    15
100
AcDbCircle
 10
60.9993251179
 20
59.1047303083
 30
0.0
 40
0.1025835881583344
100
AcDbArc
 50
240.8774107926
 51
243.7515514874
  0
LWPOLYLINE
  5
CA
330
1F
100
AcDbEntity
  8
0
  6
Continuous
 62
     7
370
    15
100
AcDbPolyline
 90
        4
 70
   128
 43
0.0
 10
60.8842109874
 20
58.8781923966
 10
60.8836501406
 20
58.8779119731
 10
60.8830890004
 20
58.8776312564
 10
60.8825275669
 20
58.8773505396
  0
LINE
  5
CB
330
1F
100
AcDbEntity
  8
0
  6
Continuous
 62
     7
370
    15
100
AcDbLine
 10
60.8825275669
 20
58.8773505396
 30
0.0
 11
60.8833694238
 21
58.8790342535
 31
0.0
  0
LINE
  5
CC
330
1F
100
AcDbEntity
  8
0
  6
Continuous
 62
     7
370
    15
100
AcDbLine
 10
60.8842124541
 20
72.7323739519
 30
0.0
 11
60.8842124541
 21
58.8815700909
 31
0.0
  0
LINE
  5
CD
330
1F
100
AcDbEntity
  8
0
  6
Continuous
 62
     7
370
    15
100
AcDbLine
 10
60.9493997544
 20
72.598827868
 30
0.0
 11
60.8842124541
 21
72.7323739519
 31
0.0
  0
SPLINE
  5
CE
330
1F
100
AcDbEntity
  8
0
  6
Continuous
 62
     7
370
    15
100
AcDbSpline
210
0.0
220
0.0
230
1.0
 70
     8
 71
     3
 72
    10
 73
     6
 74
     0
 42
0.000000001
 43
0.00000001
 40
0.0
 40
0.0
 40
0.0
 40
0.0
 40
0.4014105945309936
 40
0.8085501368976069
 40
1.0
 40
1.0
 40
1.0
 40
1.0
 10
62.16337242377764
 20
68.92339310022594
 30
0.0
 10
62.16337347898538
 20
68.9234510710497
 30
0.0
 10
62.1633756044608
 20
68.92356784005909
 30
0.0
 10
62.16339620243855
 20
68.9237109474148
 30
0.0
 10
62.16342107980396
 20
68.92377326948812
 30
0.0
 10
62.16342903645698
 20
68.92379320227059
 30
0.0
  0
LINE
  5
CF
330
1F
100
AcDbEntity
  8
0
  6
Continuous
 62
     7
370
    15
100
AcDbLine
 10
62.1633724238
 20
62.6905506492
 30
0.0
 11
62.1633724238
 21
68.9233931002
 31
0.0
  0
SPLINE
  5
D0
330
1F
100
AcDbEntity
  8
0
  6
Continuous
 62
     7
370
    15
100
AcDbSpline
210
0.0
220
0.0
230
1.0
 70
     8
 71
     3
 72
    10
 73
     6
 74
     0
 42
0.000000001
 43
0.00000001
 40
0.0
 40
0.0
 40
0.0
 40
0.0
 40
0.2697132084808688
 40
0.6222669355653285
 40
1.0
 40
1.0
 40
1.0
 40
1.0
 10
62.16342903645698
 20
62.69015054717581
 30
0.0
 10
62.16341805636136
 20
62.69017966662592
 30
0.0
 10
62.16339272371081
 20
62.69024684936079
 30
0.0
 10
62.16337534295786
 20
62.69039040381261
 30
0.0
 10
62.16337341895014
 20
62.6904960202455
 30
0.0
 10
62.16337242377764
 20
62.69055064922046
 30
0.0
  0
CIRCLE
  5
D1
330
1F
100
AcDbEntity
  8
0
  6
Continuous
 62
     7
370
    15
100
AcDbCircle
 10
61.8558724458
 20
58.650471794
 30
0.0
 40
0.125
  0
CIRCLE
  5
D2
330
1F
100
AcDbEntity
  8
0
  6
Continuous
 62
     7
370
    15
100
AcDbCircle
 10
61.8558724458
 20
58.650471794
 30
0.0
 40
0.1399999999999935
  0
ARC
  5
D3
330
1F
100
AcDbEntity
  8
0
  6
Continuous
 62
     7
370
    15
100
AcDbCircle
 10
67.5762747176
 20
59.1302933001
 30
0.0
 40
0.3559297319550891
100
AcDbArc
 50
314.9041743295
 51
315.0958256705
  0
LINE
  5
D4
330
1F
100
AcDbEntity
  8
0
  6
Continuous
 62
     7
370
    15
100
AcDbLine
 10
67.8283756212
 20
58.8790342535
 30
0.0
 11
67.8292174781
 21
58.8773505396
 31
0.0
  0
LINE
  5
D5
330
1F
100
AcDbEntity
  8
0
  6
Continuous
 62
     7
370
    15
100
AcDbLine
 10
67.8292174781
 20
58.8773505396
 30
0.0
 11
67.8275337642
 21
58.8781923966
 31
0.0
  0
CIRCLE
  5
D6
330
1F
100
AcDbEntity
  8
0
  6
Continuous
 62
     7
370
    15
100
AcDbCircle
 10
60.1958724458
 20
61.306971794
 30
0.0
 40
0.125
  0
CIRCLE
  5
D7
330
1F
100
AcDbEntity
  8
0
  6
Continuous
 62
     7
370
    15
100
AcDbCircle
 10
60.1958724458
 20
61.306971794
 30
0.0
 40
0.1399999999999935
  0
ARC
  5
D8
330
1F
100
AcDbEntity
  8
0
  6
Continuous
 62
     7
370
    15
100
AcDbCircle
 10
60.0993724458
 20
58.546971794
 30
0.0
 40
0.2349999999999994
100
AcDbArc
 50
180.0
 51
270.0
  0
LINE
  5
D9
330
1F
100
AcDbEntity
  8
0
  6
Continuous
 62
     7
370
    15
100
AcDbLine
 10
60.0993726939
 20
58.3119717376
 30
0.0
 11
60.0993726939
 21
58.2969717242
 31
0.0
  0
ARC
  5
DA
330
1F
100
AcDbEntity
  8
0
  6
Continuous
 62
     7
370
    15
100
AcDbCircle
 10
60.0993724458
 20
58.546971794
 30
0.0
 40
0.2500000000000071
100
AcDbArc
 50
180.0
 51
270.0
  0
ARC
  5
DB
330
1F
100
AcDbEntity
  8
0
  6
Continuous
 62
     7
370
    15
100
AcDbCircle
 10
68.6123724458
 20
58.546971794
 30
0.0
 40
0.2349999999999994
100
AcDbArc
 50
270.0
 51
0.0
  0
LINE
  5
DC
330
1F
100
AcDbEntity
  8
0
  6
Continuous
 62
     7
370
    15
100
AcDbLine
 10
68.8623724764
 20
58.5469718495
 30
0.0
 11
68.847372463
 21
58.5469718495
 31
0.0
  0
ARC
  5
DD
330
1F
100
AcDbEntity
  8
0
  6
Continuous
 62
     7
370
    15
100
AcDbCircle
 10
68.6123724458
 20
58.546971794
 30
0.0
 40
0.2500000000000071
100
AcDbArc
 50
270.0
 51
0.0
  0
LINE
  5
DE
330
1F
100
AcDbEntity
  8
0
  6
Continuous
 62
     7
370
    15
100
AcDbLine
 10
68.612372351
 20
58.3119717376
 30
0.0
 11
68.612372351
 21
58.2969717242
 31
0.0
  0
LINE
  5
DF
330
1F
100
AcDbEntity
  8
0
  6
Continuous
 62
     7
370
    15
100
AcDbLine
 10
67.8292174781
 20
58.8773505396
 30
0.0
 11
60.8825275669
 21
58.8773505396
 31
0.0
  0
SPLINE
  5
E0
330
1F
100
AcDbEntity
  8
0
  6
Continuous
 62
     7
370
    15
100
AcDbSpline
210
0.0
220
0.0
230
1.0
 70
     8
 71
     3
 72
    10
 73
     6
 74
     0
 42
0.000000001
 43
0.00000001
 40
0.0
 40
0.0
 40
0.0
 40
0.0
 40
0.2696189318726804
 40
0.6209338382997192
 40
0.9999999999999999
 40
0.9999999999999999
 40
0.9999999999999999
 40
0.9999999999999999
 10
66.5483158618702
 20
68.92379320227059
 30
0.0
 10
66.54832676782361
 20
68.92376407639428
 30
0.0
 10
66.5483518842925
 20
68.9236969993458
 30
0.0
 10
66.54836968512177
 20
68.92355359938516
 30
0.0
 10
66.54837152148242
 20
68.9234479381656
 30
0.0
 10
66.54837247454954
 20
68.92339310022594
 30
0.0
  0
LINE
  5
E1
330
1F
100
AcDbEntity
  8
0
  6
Continuous
 62
     7
370
    15
100
AcDbLine
 10
67.8275322976
 20
72.7323739519
 30
0.0
 11
67.7623449973
 21
72.598827868
 31
0.0
  0
LINE
  5
E2
330
1F
100
AcDbEntity
  8
0
  6
Continuous
 62
     7
370
    15
100
AcDbLine
 10
67.8275322976
 20
58.8815700909
 30
0.0
 11
67.8275322976
 21
72.7323739519
 31
0.0
  0
LINE
  5
E3
330
1F
100
AcDbEntity
  8
0
  6
Continuous
 62
     7
370
    15
100
AcDbLine
 10
67.7623449973
 20
59.0151152948
 30
0.0
 11
67.8275322976
 21
58.8815700909
 31
0.0
  0
SPLINE
  5
E4
330
1F
100
AcDbEntity
  8
0
  6
Continuous
 62
     7
370
    15
100
AcDbSpline
210
0.0
220
0.0
230
1.0
 70
     8
 71
     3
 72
    10
 73
     6
 74
     0
 42
0.000000001
 43
0.00000001
 40
0.0
 40
0.0
 40
0.0
 40
0.0
 40
0.4026023894383861
 40
0.8095364563495788
 40
1.0
 40
1.0
 40
1.0
 40
1.0
 10
66.54837247454954
 20
62.69055064922046
 30
0.0
 10
66.54837139268137
 20
62.69049250478925
 30
0.0
 10
66.54836921730504
 20
62.69037559033956
 30
0.0
 10
66.54834904478581
 20
62.69023214430329
 30
0.0
 10
66.54832388376043
 20
62.69017027308559
 30
0.0
 10
66.5483158618702
 20
62.69015054717581
 30
0.0
  0
LINE
  5
E5
330
1F
100
AcDbEntity
  8
0
  6
Continuous
 62
     7
370
    15
100
AcDbLine
 10
66.5483724745
 20
68.9233931002
 30
0.0
 11
66.5483724745
 21
62.6905506492
 31
0.0
  0
LINE
  5
E6
330
1F
100
AcDbEntity
  8
0
  6
Continuous
 62
     7
370
    15
100
AcDbLine
 10
68.8623724764
 20
73.0669718999
 30
0.0
 11
68.8623724764
 21
58.5469718495
 31
0.0
  0
LINE
  5
E7
330
1F
100
AcDbEntity
  8
0
  6
Continuous
 62
     7
370
    15
100
AcDbLine
 10
68.847372463
 20
58.5469718495
 30
0.0
 11
68.847372463
 21
73.0669718999
 31
0.0
  0
LINE
  5
E8
330
1F
100
AcDbEntity
  8
0
  6
Continuous
 62
     7
370
    15
100
AcDbLine
 10
68.8623724764
 20
73.0669718999
 30
0.0
 11
68.847372463
 21
73.0669718999
 31
0.0
  0
LWPOLYLINE
  5
E9
330
1F
100
AcDbEntity
  8
0
  6
Continuous
 62
     7
370
    15
100
AcDbPolyline
 90
        4
 70
   128
 43
0.0
 10
60.8833694238
 20
72.7349094959
 10
60.8830890004
 20
72.7354703428
 10
60.8828082836
 20
72.7360311896
 10
60.8825275669
 20
72.7365932098
  0
LINE
  5
EA
330
1F
100
AcDbEntity
  8
0
  6
Continuous
 62
     7
370
    15
100
AcDbLine
 10
60.8842124541
 20
72.7323739519
 30
0.0
 11
60.8833694238
 21
72.7349094959
 31
0.0
  0
LINE
  5
EB
330
1F
100
AcDbEntity
  8
0
  6
Continuous
 62
     7
370
    15
100
AcDbLine
 10
60.8825275669
 20
58.8773505396
 30
0.0
 11
60.8825275669
 21
72.7365932098
 31
0.0
  0
LINE
  5
EC
330
1F
100
AcDbEntity
  8
0
  6
Continuous
 62
     7
370
    15
100
AcDbLine
 10
60.0993726939
 20
58.3119717376
 30
0.0
 11
68.612372351
 21
58.3119717376
 31
0.0
  0
LINE
  5
ED
330
1F
100
AcDbEntity
  8
0
  6
Continuous
 62
     7
370
    15
100
AcDbLine
 10
68.612372351
 20
58.2969717242
 30
0.0
 11
60.0993726939
 21
58.2969717242
 31
0.0
  0
ARC
  5
EE
330
1F
100
AcDbEntity
  8
0
  6
Continuous
 62
     7
370
    15
100
AcDbCircle
 10
67.7123884029
 20
59.1047842602
 30
0.0
 40
0.1026459189301792
100
AcDbArc
 50
296.2509115365
 51
299.1231615383
  0
ARC
  5
EF
330
1F
100
AcDbEntity
  8
0
  6
Continuous
 62
     7
370
    15
100
AcDbCircle
 10
67.6989181428
 20
59.1364693468
 30
0.0
 40
0.2855087240143056
100
AcDbArc
 50
296.3959116205
 51
296.7740764125
  0
LINE
  5
F0
330
1F
100
AcDbEntity
  8
0
  6
Continuous
 62
     7
370
    15
100
AcDbLine
 10
67.8283756212
 20
72.7349094959
 30
0.0
 11
67.8275322976
 21
72.7323739519
 31
0.0
  0
LWPOLYLINE
  5
F1
330
1F
100
AcDbEntity
  8
0
  6
Continuous
 62
     7
370
    15
100
AcDbPolyline
 90
        4
 70
   128
 43
0.0
 10
67.8292174781
 20
72.7365932098
 10
67.8289367614
 20
72.7360311896
 10
67.8286560446
 20
72.7354703428
 10
67.8283756212
 20
72.7349094959
  0
LINE
  5
F2
330
1F
100
AcDbEntity
  8
0
  6
Continuous
 62
     7
370
    15
100
AcDbLine
 10
67.8292174781
 20
72.7365932098
 30
0.0
 11
67.8292174781
 21
58.8773505396
 31
0.0
  0
LINE
  5
F3
330
1F
100
AcDbEntity
  8
0
  6
Continuous
 62
     7
370
    15
100
AcDbLine
 10
67.8275322976
 20
58.8815700909
 30
0.0
 11
67.8283756212
 21
58.8790342535
 31
0.0
  0
LINE
  5
F4
330
1F
100
AcDbEntity
  8
0
  6
Continuous
 62
     7
370
    15
100
AcDbLine
 10
60.8825275669
 20
72.7365932098
 30
0.0
 11
67.8292174781
 21
72.7365932098
 31
0.0
  0
CIRCLE
  5
F5
330
1F
100
AcDbEntity
  8
0
  6
Continuous
 62
     7
370
    15
100
AcDbCircle
 10
60.1958724458
 20
70.306971794
 30
0.0
 40
0.1400000000000006
  0
CIRCLE
  5
F6
330
1F
100
AcDbEntity
  8
0
  6
Continuous
 62
     7
370
    15
100
AcDbCircle
 10
60.1958724458
 20
65.806971794
 30
0.0
 40
0.1400000000000006
  0
ARC
  5
F7
330
1F
100
AcDbEntity
  8
0
  6
Continuous
 62
     7
370
    15
100
AcDbCircle
 10
60.0993724458
 20
73.066971794
 30
0.0
 40
0.2350000000000136
100
AcDbArc
 50
90.0
 51
180.0
  0
LINE
  5
F8
330
1F
100
AcDbEntity
  8
0
  6
Continuous
 62
     7
370
    15
100
AcDbLine
 10
68.612372351
 20
73.3019714252
 30
0.0
 11
60.0993726939
 21
73.3019714252
 31
0.0
  0
ARC
  5
F9
330
1F
100
AcDbEntity
  8
0
  6
Continuous
 62
     7
370
    15
100
AcDbCircle
 10
68.6123724458
 20
73.066971794
 30
0.0
 40
0.2350000000000136
100
AcDbArc
 50
0.0
 51
90.0
  0
CIRCLE
  5
FA
330
1F
100
AcDbEntity
  8
0
  6
Continuous
 62
     7
370
    15
100
AcDbCircle
 10
61.8558724458
 20
72.963471794
 30
0.0
 40
0.1400000000000006
  0
CIRCLE
  5
FB
330
1F
100
AcDbEntity
  8
0
  6
Continuous
 62
     7
370
    15
100
AcDbCircle
 10
66.8558724458
 20
72.963471794
 30
0.0
 40
0.1400000000000006
  0
CIRCLE
  5
FC
330
1F
100
AcDbEntity
  8
0
  6
Continuous
 62
     7
370
    15
100
AcDbCircle
 10
68.5158724458
 20
70.306971794
 30
0.0
 40
0.1400000000000006
  0
CIRCLE
  5
FD
330
1F
100
AcDbEntity
  8
0
  6
Continuous
 62
     7
370
    15
100
AcDbCircle
 10
68.5158724458
 20
65.806971794
 30
0.0
 40
0.1400000000000148
  0
CIRCLE
  5
FE
330
1F
100
AcDbEntity
  8
0
  6
Continuous
 62
     7
370
    15
100
AcDbCircle
 10
68.5158724458
 20
61.306971794
 30
0.0
 40
0.1399999999999935
  0
CIRCLE
  5
FF
330
1F
100
AcDbEntity
  8
0
  6
Continuous
 62
     7
370
    15
100
AcDbCircle
 10
68.5158724458
 20
65.806971794
 30
0.0
 40
0.125
  0
CIRCLE
  5
100
330
1F
100
AcDbEntity
  8
0
  6
Continuous
 62
     7
370
    15
100
AcDbCircle
 10
60.1958724458
 20
70.306971794
 30
0.0
 40
0.1250000000000142
  0
CIRCLE
  5
101
330
1F
100
AcDbEntity
  8
0
  6
Continuous
 62
     7
370
    15
100
AcDbCircle
 10
68.5158724458
 20
61.306971794
 30
0.0
 40
0.125
  0
CIRCLE
  5
102
330
1F
100
AcDbEntity
  8
0
  6
Continuous
 62
     7
370
    15
100
AcDbCircle
 10
60.1958724458
 20
65.806971794
 30
0.0
 40
0.125
  0
LINE
  5
103
330
1F
100
AcDbEntity
  8
0
  6
Continuous
 62
     7
370
    15
100
AcDbLine
 10
60.0993726939
 20
73.3169723186
 30
0.0
 11
68.612372351
 21
73.3169723186
 31
0.0
  0
LINE
  5
104
330
1F
100
AcDbEntity
  8
0
  6
Continuous
 62
     7
370
    15
100
AcDbLine
 10
68.612372351
 20
73.3169723186
 30
0.0
 11
68.612372351
 21
73.3019714252
 31
0.0
  0
LINE
  5
105
330
1F
100
AcDbEntity
  8
0
  6
Continuous
 62
     7
370
    15
100
AcDbLine
 10
60.0993726939
 20
73.3169723186
 30
0.0
 11
60.0993726939
 21
73.3019714252
 31
0.0
  0
CIRCLE
  5
106
330
1F
100
AcDbEntity
  8
0
  6
Continuous
 62
     7
370
    15
100
AcDbCircle
 10
61.8558724458
 20
72.963471794
 30
0.0
 40
0.125
  0
ARC
  5
107
330
1F
100
AcDbEntity
  8
0
  6
Continuous
 62
     7
370
    15
100
AcDbCircle
 10
67.9615614584
 20
72.8690300675
 30
0.0
 40
0.1890153299249193
100
AcDbArc
 50
224.839586525
 51
225.200354762
  0
ARC
  5
108
330
1F
100
AcDbEntity
  8
0
  6
Continuous
 62
     7
370
    15
100
AcDbCircle
 10
67.5258962037
 20
73.3407095425
 30
0.0
 40
0.6759884162947792
100
AcDbArc
 50
296.5012319393
 51
296.6608078603
  0
CIRCLE
  5
109
330
1F
100
AcDbEntity
  8
0
  6
Continuous
 62
     7
370
    15
100
AcDbCircle
 10
66.8558724458
 20
72.963471794
 30
0.0
 40
0.125
  0
ARC
  5
10A
330
1F
100
AcDbEntity
  8
0
  6
Continuous
 62
     7
370
    15
100
AcDbCircle
 10
67.6996927513
 20
72.4787570427
 30
0.0
 40
0.2840149400937733
100
AcDbArc
 50
63.248901048
 51
63.6289754006
  0
ARC
  5
10B
330
1F
100
AcDbEntity
  8
0
  6
Continuous
 62
     7
370
    15
100
AcDbCircle
 10
60.9992559624
 20
72.5093671975
 30
0.0
 40
0.1024151016030582
100
AcDbArc
 50
116.2517920187
 51
119.1308146068
  0
ARC
  5
10C
330
1F
100
AcDbEntity
  8
0
  6
Continuous
 62
     7
370
    15
100
AcDbCircle
 10
61.0170157528
 20
72.4688278094
 30
0.0
 40
0.2951157152085297
100
AcDbArc
 50
116.3781728708
 51
116.7439506804
  0
ARC
  5
10D
330
1F
100
AcDbEntity
  8
0
  6
Continuous
 62
     7
370
    15
100
AcDbCircle
 10
68.6123724458
 20
73.066971794
 30
0.0
 40
0.2500000000000142
100
AcDbArc
 50
0.0
 51
90.0
  0
ARC
  5
10E
330
1F
100
AcDbEntity
  8
0
  6
Continuous
 62
     7
370
    15
100
AcDbCircle
 10
60.0993724458
 20
73.066971794
 30
0.0
 40
0.2500000000000142
100
AcDbArc
 50
90.0
 51
180.0
  0
ARC
  5
10F
330
1F
100
AcDbEntity
  8
0
  6
Continuous
 62
     7
370
    15
100
AcDbCircle
 10
67.7124585953
 20
72.5093152258
 30
0.0
 40
0.1024751980144644
100
AcDbArc
 50
60.8685845139
 51
63.7457730825
  0
ARC
  5
110
330
1F
100
AcDbEntity
  8
0
  6
Continuous
 62
     7
370
    15
100
AcDbCircle
 10
61.6310297704
 20
71.9878300226
 30
0.0
 40
1.056940742578672
100
AcDbArc
 50
134.9577600739
 51
135.022265801
  0
ARC
  5
111
330
1F
100
AcDbEntity
  8
0
  6
Continuous
 62
     7
370
    15
100
AcDbCircle
 10
61.1033097716
 20
73.1756700722
 30
0.0
 40
0.4914603473746528
100
AcDbArc
 50
243.3052545402
 51
243.5247157355
  0
CIRCLE
  5
112
330
1F
100
AcDbEntity
  8
0
  6
Continuous
 62
     7
370
    15
100
AcDbCircle
 10
68.5158724458
 20
70.306971794
 30
0.0
 40
0.1250000000000142
  0
SPLINE
  5
113
330
1F
100
AcDbEntity
  8
0
  6
Continuous
 62
     7
370
    15
100
AcDbSpline
210
0.0
220
0.0
230
1.0
 70
     8
 71
     3
 72
     9
 73
     5
 74
     0
 42
0.000000001
 43
0.00000001
 40
0.0
 40
0.0
 40
0.0
 40
0.0
 40
0.7298905385274825
 40
1.0
 40
1.0
 40
1.0
 40
1.0
 10
65.16715025721312
 20
69.67724284502269
 30
0.0
 10
65.16518890857809
 20
69.67873063429647
 30
0.0
 10
65.16250172669051
 20
69.6807690074432
 30
0.0
 10
65.15942879940225
 20
69.68179415410162
 30
0.0
 10
65.15859877266726
 20
69.68207105591345
 30
0.0
  0
LINE
  5
114
330
1F
100
AcDbEntity
  8
0
  6
Continuous
 62
     7
370
    15
100
AcDbLine
 10
65.1585987727
 20
69.6820722292
 30
0.0
 11
65.1585969027
 21
69.6820722292
 31
0.0
  0
SPLINE
  5
115
330
1F
100
AcDbEntity
  8
0
  6
Continuous
 62
     7
370
    15
100
AcDbSpline
210
0.0
220
0.0
230
1.0
 70
     8
 71
     3
 72
    10
 73
     6
 74
     0
 42
0.000000001
 43
0.00000001
 40
0.0
 40
0.0
 40
0.0
 40
0.0
 40
0.2469751679863085
 40
0.5033971445229257
 40
1.0
 40
1.0
 40
1.0
 40
1.0
 10
65.15859690268887
 20
69.68207222923323
 30
0.0
 10
65.18236757505099
 20
69.72070234941606
 30
0.0
 10
65.2308181487991
 20
69.79944019318863
 30
0.0
 10
65.33791239513828
 20
69.95195726401737
 30
0.0
 10
65.41662740649248
 20
70.07591560071232
 30
0.0
 10
65.46853817722082
 20
70.15766332183101
 30
0.0
  0
SPLINE
  5
116
330
1F
100
AcDbEntity
  8
0
  6
Continuous
 62
     7
370
    15
100
AcDbSpline
210
0.0
220
0.0
230
1.0
 70
     8
 71
     3
 72
     9
 73
     5
 74
     0
 42
0.000000001
 43
0.00000001
 40
0.0
 40
0.0
 40
0.0
 40
0.0
 40
0.7298999903342215
 40
1.0
 40
1.0
 40
1.0
 40
1.0
 10
63.54459464111406
 20
61.93670090442371
 30
0.0
 10
63.5465559477469
 20
61.93521286015661
 30
0.0
 10
63.54924303729179
 20
61.93317416405193
 30
0.0
 10
63.55231606435436
 20
61.93214900290796
 30
0.0
 10
63.55314608899366
 20
61.93187210687306
 30
0.0
  0
LINE
  5
117
330
1F
100
AcDbEntity
  8
0
  6
Continuous
 62
     7
370
    15
100
AcDbLine
 10
63.5531479956
 20
61.9318715202
 30
0.0
 11
63.553146089
 21
61.9318715202
 31
0.0
  0
SPLINE
  5
118
330
1F
100
AcDbEntity
  8
0
  6
Continuous
 62
     7
370
    15
100
AcDbSpline
210
0.0
220
0.0
230
1.0
 70
     8
 71
     3
 72
    10
 73
     6
 74
     0
 42
0.000000001
 43
0.00000001
 40
0.0
 40
0.0
 40
0.0
 40
0.0
 40
0.247016191735696
 40
0.5034776437704185
 40
1.0
 40
1.0
 40
1.0
 40
1.0
 10
63.55314799563831
 20
61.93187152021317
 30
0.0
 10
63.52937332080036
 20
61.89323486291566
 30
0.0
 10
63.48091488904855
 20
61.8144841824739
 30
0.0
 10
63.37381899592528
 20
61.66196802860727
 30
0.0
 10
63.29510879066157
 20
61.53801551239832
 30
0.0
 10
63.24320677610572
 20
61.45628042761539
 30
0.0
  0
SPLINE
  5
119
330
1F
100
AcDbEntity
  8
0
  6
Continuous
 62
     7
370
    15
100
AcDbSpline
210
0.0
220
0.0
230
1.0
 70
     8
 71
     3
 72
    10
 73
     6
 74
     0
 42
0.000000001
 43
0.00000001
 40
0.0
 40
0.0
 40
0.0
 40
0.0
 40
0.2227797767315769
 40
0.6168252851644755
 40
0.9999999999999999
 40
0.9999999999999999
 40
0.9999999999999999
 40
0.9999999999999999
 10
66.35907192136568
 20
63.19533276460105
 30
0.0
 10
66.35990281043316
 20
63.19580909009542
 30
0.0
 10
66.36220334863057
 20
63.19712792438639
 30
0.0
 10
66.36526192275034
 20
63.19995297279686
 30
0.0
 10
66.36640507512222
 20
63.20239333907559
 30
0.0
 10
66.36696865680858
 20
63.20359645580486
 30
0.0
  0
SPLINE
  5
11A
330
1F
100
AcDbEntity
  8
0
  6
Continuous
 62
     7
370
    15
100
AcDbSpline
210
0.0
220
0.0
230
1.0
 70
     8
 71
     3
 72
    12
 73
     8
 74
     0
 42
0.000000001
 43
0.00000001
 40
0.0
 40
0.0
 40
0.0
 40
0.0
 40
0.0000218598288701
 40
0.1575065400183477
 40
0.510577482832802
 40
0.9366451237904818
 40
1.0
 40
1.0
 40
1.0
 40
1.0
 10
66.36696865680858
 20
63.20359645580486
 30
0.0
 10
66.36696992790493
 20
63.20359293585227
 30
0.0
 10
66.37612855341625
 20
63.17823063515241
 30
0.0
 10
66.40586210974034
 20
63.09260778138632
 30
0.0
 10
66.46572785642176
 20
62.93724193211925
 30
0.0
 10
66.51637288636627
 20
62.78982824791296
 30
0.0
 10
66.54470494043473
 20
62.70192904502844
 30
0.0
 10
66.54837247454954
 20
62.69055064922046
 30
0.0
  0
SPLINE
  5
11B
330
1F
100
AcDbEntity
  8
0
  6
Continuous
 62
     7
370
    15
100
AcDbSpline
210
0.0
220
0.0
230
1.0
 70
     8
 71
     3
 72
    12
 73
     8
 74
     0
 42
0.000000001
 43
0.00000001
 40
0.0
 40
0.0
 40
0.0
 40
0.0
 40
0.0675774385666846
 40
0.4894237402369596
 40
0.838992577694318
 40
0.9999781402109487
 40
1.0
 40
1.0
 40
1.0
 40
1.0
 10
66.54837247454954
 20
68.92339310022594
 30
0.0
 10
66.5444597070076
 20
68.91125782381776
 30
0.0
 10
66.51612182729991
 20
68.82336913649158
 30
0.0
 10
66.46566853905225
 20
68.67661553397507
 30
0.0
 10
66.40608794063853
 20
68.52190891220509
 30
0.0
 10
66.37633213802944
 20
68.43627688782566
 30
0.0
 10
66.36696992790489
 20
68.41035081359426
 30
0.0
 10
66.36696865680858
 20
68.41034729364154
 30
0.0
  0
SPLINE
  5
11C
330
1F
100
AcDbEntity
  8
0
  6
Continuous
 62
     7
370
    15
100
AcDbSpline
210
0.0
220
0.0
230
1.0
 70
     8
 71
     3
 72
    10
 73
     6
 74
     0
 42
0.000000001
 43
0.00000001
 40
0.0
 40
0.0
 40
0.0
 40
0.0
 40
0.3831446503171424
 40
0.777219415720639
 40
1.0
 40
1.0
 40
1.0
 40
1.0
 10
66.36696865680858
 20
68.41034729364154
 30
0.0
 10
66.36640501677122
 20
68.41155014388272
 30
0.0
 10
66.36526165751994
 20
68.41399015853743
 30
0.0
 10
66.36220349496186
 20
68.41681583539196
 30
0.0
 10
66.35990282172052
 20
68.41813467787952
 30
0.0
 10
66.35907192136568
 20
68.41861098484534
 30
0.0
  0
SPLINE
  5
11D
330
1F
100
AcDbEntity
  8
0
  6
Continuous
 62
     7
370
    15
100
AcDbSpline
210
0.0
220
0.0
230
1.0
 70
     8
 71
     3
 72
    12
 73
     8
 74
     0
 42
0.000000001
 43
0.00000001
 40
0.0
 40
0.0
 40
0.0
 40
0.0
 40
0.0633548266515696
 40
0.4894225593155839
 40
0.8424934295892721
 40
0.9999781401705224
 40
1.0
 40
1.0
 40
1.0
 40
1.0
 10
62.16337242377764
 20
62.69055064922046
 30
0.0
 10
62.16703990412479
 20
62.70192904598892
 30
0.0
 10
62.19537156743456
 20
62.78982833262029
 30
0.0
 10
62.2460174255352
 20
62.93724184020184
 30
0.0
 10
62.30588252049061
 20
63.09260782434296
 30
0.0
 10
62.33561627006739
 20
63.1782306309588
 30
0.0
 10
62.34477489708977
 20
63.20359293585227
 30
0.0
 10
62.34477616818611
 20
63.20359645580486
 30
0.0
  0
SPLINE
  5
11E
330
1F
100
AcDbEntity
  8
0
  6
Continuous
 62
     7
370
    15
100
AcDbSpline
210
0.0
220
0.0
230
1.0
 70
     8
 71
     3
 72
    10
 73
     6
 74
     0
 42
0.000000001
 43
0.00000001
 40
0.0
 40
0.0
 40
0.0
 40
0.0
 40
0.3831799476659958
 40
0.7772150990260045
 40
1.0
 40
1.0
 40
1.0
 40
1.0
 10
62.34477616818611
 20
63.20359645580486
 30
0.0
 10
62.34533982159462
 20
63.20239335391932
 30
0.0
 10
62.34648309629461
 20
63.19995306716424
 30
0.0
 10
62.34954142106486
 20
63.19712785397505
 30
0.0
 10
62.35184198066911
 20
63.19580908242988
 30
0.0
 10
62.35267290362901
 20
63.19533276460105
 30
0.0
  0
SPLINE
  5
11F
330
1F
100
AcDbEntity
  8
0
  6
Continuous
 62
     7
370
    15
100
AcDbSpline
210
0.0
220
0.0
230
1.0
 70
     8
 71
     3
 72
    10
 73
     6
 74
     0
 42
0.000000001
 43
0.00000001
 40
0.0
 40
0.0
 40
0.0
 40
0.0
 40
0.2227857082851727
 40
0.6168501169778161
 40
1.0
 40
1.0
 40
1.0
 40
1.0
 10
62.35267290362901
 20
68.41861098484534
 30
0.0
 10
62.35184196938112
 20
68.41813468554557
 30
0.0
 10
62.34954127472724
 20
68.41681590580407
 30
0.0
 10
62.34648336152787
 20
68.41399006417501
 30
0.0
 10
62.3453398799444
 20
68.4115501290394
 30
0.0
 10
62.34477616818611
 20
68.41034729364154
 30
0.0
  0
SPLINE
  5
120
330
1F
100
AcDbEntity
  8
0
  6
Continuous
 62
     7
370
    15
100
AcDbSpline
210
0.0
220
0.0
230
1.0
 70
     8
 71
     3
 72
    12
 73
     8
 74
     0
 42
0.000000001
 43
0.00000001
 40
0.0
 40
0.0
 40
0.0
 40
0.0
 40
0.0000218597903885
 40
0.1610073540604441
 40
0.5105762403590111
 40
0.9324215120872666
 40
1.0
 40
1.0
 40
1.0
 40
1.0
 10
62.34477616818611
 20
68.41034729364154
 30
0.0
 10
62.34477489708981
 20
68.41035081359426
 30
0.0
 10
62.33541269149995
 20
68.43627687524761
 30
0.0
 10
62.30565731574887
 20
68.5219090404504
 30
0.0
 10
62.24607643758446
 20
68.67661473240376
 30
0.0
 10
62.19562302463196
 20
68.82337064230119
 30
0.0
 10
62.16728523894058
 20
68.91125784135838
 30
0.0
 10
62.16337242377764
 20
68.92339310022594
 30
0.0
  0
SPLINE
  5
121
330
1F
100
AcDbEntity
  8
0
  6
Continuous
 62
     7
370
    15
100
AcDbSpline
210
0.0
220
0.0
230
1.0
 70
     8
 71
     3
 72
    11
 73
     7
 74
     0
 42
0.000000001
 43
0.00000001
 40
0.0
 40
0.0
 40
0.0
 40
0.0
 40
0.043774419508742
 40
0.4965282542758002
 40
0.7529866923268572
 40
1.0
 40
1.0
 40
1.0
 40
1.0
 10
65.46853817722082
 20
61.45628042761539
 30
0.0
 10
65.46386051114841
 20
61.46348775152681
 30
0.0
 10
65.41080227770794
 20
61.5452396056895
 30
0.0
 10
65.3335375819609
 20
61.66863742562811
 30
0.0
 10
65.23077586599643
 20
61.81448512977969
 30
0.0
 10
65.18235375752603
 20
61.89323517369897
 30
0.0
 10
65.15859690268887
 20
61.93187152021317
 30
0.0
  0
LINE
  5
122
330
1F
100
AcDbEntity
  8
0
  6
Continuous
 62
     7
370
    15
100
AcDbLine
 10
65.1585987727
 20
61.9318715202
 30
0.0
 11
65.1585969027
 21
61.9318715202
 31
0.0
  0
SPLINE
  5
123
330
1F
100
AcDbEntity
  8
0
  6
Continuous
 62
     7
370
    15
100
AcDbSpline
210
0.0
220
0.0
230
1.0
 70
     8
 71
     3
 72
     9
 73
     5
 74
     0
 42
0.000000001
 43
0.00000001
 40
0.0
 40
0.0
 40
0.0
 40
0.0
 40
0.2701008271517684
 40
1.0
 40
1.0
 40
1.0
 40
1.0
 10
65.15859877266726
 20
61.93187210687306
 30
0.0
 10
65.15942880354528
 20
61.93214900256228
 30
0.0
 10
65.16250184440472
 20
61.93317415932376
 30
0.0
 10
65.16518894483309
 20
61.93521285912506
 30
0.0
 10
65.16715025721312
 20
61.93670090442371
 30
0.0
  0
SPLINE
  5
124
330
1F
100
AcDbEntity
  8
0
  6
Continuous
 62
     7
370
    15
100
AcDbSpline
210
0.0
220
0.0
230
1.0
 70
     8
 71
     3
 72
    11
 73
     7
 74
     0
 42
0.000000001
 43
0.00000001
 40
0.0
 40
0.0
 40
0.0
 40
0.0
 40
0.0437748959640559
 40
0.4965282029545485
 40
0.7529871987010531
 40
1.0
 40
1.0
 40
1.0
 40
1.0
 10
63.24320677610572
 20
70.15766332183101
 30
0.0
 10
63.24788439406808
 20
70.15045579500878
 30
0.0
 10
63.30094149882655
 20
70.06870253753159
 30
0.0
 10
63.37820773459116
 20
69.94530678758663
 30
0.0
 10
63.48096877409957
 20
69.79945793630597
 30
0.0
 10
63.52939109010395
 20
69.72070829505051
 30
0.0
 10
63.55314799563831
 20
69.68207222923323
 30
0.0
  0
LINE
  5
125
330
1F
100
AcDbEntity
  8
0
  6
Continuous
 62
     7
370
    15
100
AcDbLine
 10
63.5531479956
 20
69.6820722292
 30
0.0
 11
63.553146089
 21
69.6820722292
 31
0.0
  0
SPLINE
  5
126
330
1F
100
AcDbEntity
  8
0
  6
Continuous
 62
     7
370
    15
100
AcDbSpline
210
0.0
220
0.0
230
1.0
 70
     8
 71
     3
 72
     9
 73
     5
 74
     0
 42
0.000000001
 43
0.00000001
 40
0.0
 40
0.0
 40
0.0
 40
0.0
 40
0.2701086440067448
 40
1.0
 40
1.0
 40
1.0
 40
1.0
 10
63.55314608899366
 20
69.68207105591345
 30
0.0
 10
63.55231606849737
 20
69.681794153756
 30
0.0
 10
63.549243155006
 20
69.68076900271554
 30
0.0
 10
63.54655598400198
 20
69.67873063326498
 30
0.0
 10
63.54459464111406
 20
69.67724284502269
 30
0.0
  0
LINE
  5
127
330
1F
100
AcDbEntity
  8
0
  6
Continuous
 62
     7
370
    15
100
AcDbLine
 10
65.1585969027
 20
69.6820722292
 30
0.0
 11
63.5531479956
 21
69.6820722292
 31
0.0
  0
LINE
  5
128
330
1F
100
AcDbEntity
  8
0
  6
Continuous
 62
     7
370
    15
100
AcDbLine
 10
65.1585969027
 20
61.9318715202
 30
0.0
 11
63.5531479956
 21
61.9318715202
 31
0.0
  0
SPLINE
  5
129
330
1F
100
AcDbEntity
  8
0
  6
Continuous
 62
     7
370
    15
100
AcDbSpline
210
0.0
220
0.0
230
1.0
 70
     8
 71
     3
 72
    10
 73
     6
 74
     0
 42
0.000000001
 43
0.00000001
 40
0.0
 40
0.0
 40
0.0
 40
0.0
 40
0.4566496571574272
 40
0.807561033689139
 40
0.9999999999999999
 40
0.9999999999999999
 40
0.9999999999999999
 40
0.9999999999999999
 10
62.34477235489683
 20
68.41031326736794
 30
0.0
 10
62.34477241672374
 20
68.41031881610456
 30
0.0
 10
62.34477252606138
 20
68.41032862875504
 30
0.0
 10
62.34477421508333
 20
68.41033992877537
 30
0.0
 10
62.34477565736994
 20
68.41034536742812
 30
0.0
 10
62.34477616818611
 20
68.41034729364154
 30
0.0
  0
LINE
  5
12A
330
1F
100
AcDbEntity
  8
0
  6
Continuous
 62
     7
370
    15
100
AcDbLine
 10
62.3447723549
 20
63.2036298954
 30
0.0
 11
62.3447723549
 21
68.4103132674
 31
0.0
  0
SPLINE
  5
12B
330
1F
100
AcDbEntity
  8
0
  6
Continuous
 62
     7
370
    15
100
AcDbSpline
210
0.0
220
0.0
230
1.0
 70
     8
 71
     3
 72
    10
 73
     6
 74
     0
 42
0.000000001
 43
0.00000001
 40
0.0
 40
0.0
 40
0.0
 40
0.0
 40
0.3297291836212375
 40
0.7681451750519308
 40
1.0
 40
1.0
 40
1.0
 40
1.0
 10
62.34477616818611
 20
63.20359645580486
 30
0.0
 10
62.34477528244548
 20
63.20359966734687
 30
0.0
 10
62.34477321900243
 20
63.20360714903372
 30
0.0
 10
62.34477272708228
 20
63.20361928121565
 30
0.0
 10
62.34477245055201
 20
63.20362716746799
 30
0.0
 10
62.34477235489683
 20
63.20362989541856
 30
0.0
  0
LINE
  5
12C
330
1F
100
AcDbEntity
  8
0
  6
Continuous
 62
     7
370
    15
100
AcDbLine
 10
66.3669724701
 20
68.4103132674
 30
0.0
 11
66.3669724701
 21
63.2036298954
 31
0.0
  0
SPLINE
  5
12D
330
1F
100
AcDbEntity
  8
0
  6
Continuous
 62
     7
370
    15
100
AcDbSpline
210
0.0
220
0.0
230
1.0
 70
     8
 71
     3
 72
    10
 73
     6
 74
     0
 42
0.000000001
 43
0.00000001
 40
0.0
 40
0.0
 40
0.0
 40
0.0
 40
0.3385700651402117
 40
0.7714446382015182
 40
1.0
 40
1.0
 40
1.0
 40
1.0
 10
66.36696865680858
 20
68.41034729364154
 30
0.0
 10
66.36696948690492
 20
68.41034387781218
 30
0.0
 10
66.36697137831067
 20
68.41033609471641
 30
0.0
 10
66.36697236981843
 20
68.4103239033799
 30
0.0
 10
66.36697244434531
 20
68.41031599878112
 30
0.0
 10
66.36697247009786
 20
68.41031326736794
 30
0.0
  0
SPLINE
  5
12E
330
1F
100
AcDbEntity
  8
0
  6
Continuous
 62
     7
370
    15
100
AcDbSpline
210
0.0
220
0.0
230
1.0
 70
     8
 71
     3
 72
    10
 73
     6
 74
     0
 42
0.000000001
 43
0.00000001
 40
0.0
 40
0.0
 40
0.0
 40
0.0
 40
0.4478390929850622
 40
0.804440586846177
 40
1.0
 40
1.0
 40
1.0
 40
1.0
 10
66.36697247009786
 20
63.20362989541856
 30
0.0
 10
66.36697239974409
 20
63.20362454705034
 30
0.0
 10
66.36697227336958
 20
63.20361493992906
 30
0.0
 10
66.36697060975708
 20
63.20360382072144
 30
0.0
 10
66.3669691675844
 20
63.20359838203146
 30
0.0
 10
66.36696865680858
 20
63.20359645580486
 30
0.0
  0
ARC
  5
12F
330
1F
100
AcDbEntity
  8
0
  6
Continuous
 62
     7
370
    15
100
AcDbCircle
 10
63.3806574992
 20
64.7731507494
 30
0.0
 40
0.0140644955418283
100
AcDbArc
 50
258.3094700914
 51
292.4525227683
  0
ARC
  5
130
330
1F
100
AcDbEntity
  8
0
  6
Continuous
 62
     7
370
    15
100
AcDbCircle
 10
61.1074203194
 20
63.0539346528
 30
0.0
 40
2.846389177461039
100
AcDbArc
 50
23.741748831
 51
35.6225667583
  0
ARC
  5
131
330
1F
100
AcDbEntity
  8
0
  6
Continuous
 62
     7
370
    15
100
AcDbCircle
 10
67.5861646728
 20
63.063737921
 30
0.0
 40
2.825753316620392
100
AcDbArc
 50
145.4049851369
 51
156.9480680182
  0
ARC
  5
132
330
1F
100
AcDbEntity
  8
0
  6
Continuous
 62
     7
370
    15
100
AcDbCircle
 10
65.3310874188
 20
64.7731508352
 30
0.0
 40
0.0140645858793658
100
AcDbArc
 50
247.547502619
 51
281.690582059
  0
ARC
  5
133
330
1F
100
AcDbEntity
  8
0
  6
Continuous
 62
     7
370
    15
100
AcDbCircle
 10
65.3310864384
 20
66.8407830258
 30
0.0
 40
0.0140738933606708
100
AcDbArc
 50
78.3131827781
 51
112.4325221067
  0
ARC
  5
134
330
1F
100
AcDbEntity
  8
0
  6
Continuous
 62
     7
370
    15
100
AcDbCircle
 10
67.604310216
 20
68.5600022039
 30
0.0
 40
2.846373440825662
100
AcDbArc
 50
203.7417494841
 51
215.6226230436
  0
ARC
  5
135
330
1F
100
AcDbEntity
  8
0
  6
Continuous
 62
     7
370
    15
100
AcDbCircle
 10
61.1255893506
 20
68.5501975287
 30
0.0
 40
2.825741406892114
100
AcDbArc
 50
325.405008564
 51
336.9481610759
  0
ARC
  5
136
330
1F
100
AcDbEntity
  8
0
  6
Continuous
 62
     7
370
    15
100
AcDbCircle
 10
63.3806584795
 20
66.8407831115
 30
0.0
 40
0.0140738031523887
100
AcDbArc
 50
67.5674527933
 51
101.6867648996
  0
LWPOLYLINE
  5
137
330
1F
100
AcDbEntity
  8
0
  6
Continuous
 62
     7
370
    15
100
AcDbPolyline
 90
       12
 70
   128
 43
0.0
 10
66.3669724701
 20
68.4103132674
 10
66.2953300777
 20
68.2150529097
 10
66.2205038821
 20
68.0302796842
 10
66.1426734012
 20
67.8564382791
 10
66.0620252662
 20
67.6939452229
 10
65.9787528548
 20
67.5431900578
 10
65.8930559248
 20
67.4045341662
 10
65.8051399171
 20
67.278310771
 10
65.7152156992
 20
67.1648225887
 10
65.6234989421
 20
67.0643406562
 10
65.5302095881
 20
66.9771066772
 10
65.523294463
 20
66.9712213052
  0
ARC
  5
138
330
1F
100
AcDbEntity
  8
0
  6
Continuous
 62
     7
370
    15
100
AcDbCircle
 10
65.3237380987
 20
66.8420946951
 30
0.0
 40
0.0161101106639494
100
AcDbArc
 50
3.8852967574
 51
50.7214154767
  0
LWPOLYLINE
  5
139
330
1F
100
AcDbEntity
  8
0
  6
Continuous
 62
     7
370
    15
100
AcDbPolyline
 90
       12
 70
   128
 43
0.0
 10
62.3447723549
 20
63.2036298954
 10
62.4164149673
 20
63.3988908397
 10
62.4912410895
 20
63.5836640652
 10
62.5690714971
 20
63.7575054703
 10
62.6497196321
 20
63.9199985265
 10
62.7329918968
 20
64.0707536917
 10
62.8186891202
 20
64.2094089966
 10
62.9066049446
 20
64.3356329784
 10
62.9965291991
 20
64.4491217474
 10
63.0882459929
 20
64.5496030933
 10
63.1815353285
 20
64.6368370722
 10
63.1884504353
 20
64.6427224442
  0
ARC
  5
13A
330
1F
100
AcDbEntity
  8
0
  6
Continuous
 62
     7
370
    15
100
AcDbCircle
 10
63.3880082685
 20
64.7718492323
 30
0.0
 40
0.0161116004958408
100
AcDbArc
 50
183.8876621618
 51
230.7192322954
  0
ARC
  5
13B
330
1F
100
AcDbEntity
  8
0
  6
Continuous
 62
     7
370
    15
100
AcDbCircle
 10
63.3880057318
 20
66.84209524
 30
0.0
 40
0.0161089808675804
100
AcDbArc
 50
129.2767326007
 51
176.1163729421
  0
LWPOLYLINE
  5
13C
330
1F
100
AcDbEntity
  8
0
  6
Continuous
 62
     7
370
    15
100
AcDbPolyline
 90
       12
 70
   128
 43
0.0
 10
63.1961056136
 20
66.9647985527
 10
63.1815353285
 20
66.9771066772
 10
63.0882459929
 20
67.0643406562
 10
62.9965291991
 20
67.1648225887
 10
62.9066049446
 20
67.278310771
 10
62.8186891202
 20
67.4045341662
 10
62.7329918968
 20
67.5431900578
 10
62.6497196321
 20
67.6939452229
 10
62.5690714971
 20
67.8564382791
 10
62.4912410895
 20
68.0302796842
 10
62.4164149673
 20
68.2150529097
 10
62.3447723549
 20
68.4103132674
  0
ARC
  5
13D
330
1F
100
AcDbEntity
  8
0
  6
Continuous
 62
     7
370
    15
100
AcDbCircle
 10
65.3237355615
 20
64.7718497775
 30
0.0
 40
0.0161127308197329
100
AcDbArc
 50
309.2826198165
 51
356.1106679493
  0
LWPOLYLINE
  5
13E
330
1F
100
AcDbEntity
  8
0
  6
Continuous
 62
     7
370
    15
100
AcDbPolyline
 90
       12
 70
   128
 43
0.0
 10
65.5156392664
 20
64.6491457834
 10
65.5302095881
 20
64.6368370722
 10
65.6234989421
 20
64.5496030933
 10
65.7152156992
 20
64.4491217474
 10
65.8051399171
 20
64.3356329784
 10
65.8930559248
 20
64.2094089966
 10
65.9787528548
 20
64.0707536917
 10
66.0620252662
 20
63.9199985265
 10
66.1426734012
 20
63.7575054703
 10
66.2205038821
 20
63.5836640652
 10
66.2953300777
 20
63.3988908397
 10
66.3669724701
 20
63.2036298954
  0
LINE
  5
13F
330
1F
100
AcDbEntity
  8
0
  6
Continuous
 62
     7
370
    15
100
AcDbLine
 10
65.3257159096
 20
64.7601523943
 30
0.0
 11
65.3236710195
 21
64.7657720094
 31
0.0
  0
LINE
  5
140
330
1F
100
AcDbEntity
  8
0
  6
Continuous
 62
     7
370
    15
100
AcDbLine
 10
63.3880739293
 20
64.7657720094
 30
0.0
 11
63.3860289795
 21
64.7601523943
 31
0.0
  0
LINE
  5
141
330
1F
100
AcDbEntity
  8
0
  6
Continuous
 62
     7
370
    15
100
AcDbLine
 10
65.3236710195
 20
64.7657720094
 30
0.0
 11
63.3880739293
 21
64.7657720094
 31
0.0
  0
LINE
  5
142
330
1F
100
AcDbEntity
  8
0
  6
Continuous
 62
     7
370
    15
100
AcDbLine
 10
65.3357636885
 20
64.782223126
 30
0.0
 11
65.3357724472
 21
64.7821978997
 31
0.0
  0
SPLINE
  5
143
330
1F
100
AcDbEntity
  8
0
  6
Continuous
 62
     7
370
    15
100
AcDbSpline
210
0.0
220
0.0
230
1.0
 70
     8
 71
     3
 72
    10
 73
     6
 74
     0
 42
0.000000001
 43
0.00000001
 40
0.0
 40
0.0
 40
0.0
 40
0.0
 40
0.2420032544076432
 40
0.6744458915856114
 40
1.0
 40
1.0
 40
1.0
 40
1.0
 10
65.33577244719186
 20
64.78229997848705
 30
0.0
 10
65.33577236825698
 20
64.78229334427859
 30
0.0
 10
65.33577214827109
 20
64.7822748552105
 30
0.0
 10
65.33577011551965
 20
64.78224693696546
 30
0.0
 10
65.33576561953561
 20
64.78223028006119
 30
0.0
 10
65.33576368854304
 20
64.78222312604152
 30
0.0
  0
LINE
  5
144
330
1F
100
AcDbEntity
  8
0
  6
Continuous
 62
     7
370
    15
100
AcDbLine
 10
65.3357724472
 20
66.8316431843
 30
0.0
 11
65.3357724472
 21
64.7822999785
 31
0.0
  0
SPLINE
  5
145
330
1F
100
AcDbEntity
  8
0
  6
Continuous
 62
     7
370
    15
100
AcDbSpline
210
0.0
220
0.0
230
1.0
 70
     8
 71
     3
 72
    10
 73
     6
 74
     0
 42
0.000000001
 43
0.00000001
 40
0.0
 40
0.0
 40
0.0
 40
0.0
 40
0.1963154709406473
 40
0.5606799726568211
 40
1.0
 40
1.0
 40
1.0
 40
1.0
 10
65.33576368854304
 20
66.83172062340488
 30
0.0
 10
65.3357649255181
 20
66.83171644851193
 30
0.0
 10
65.33576845833772
 20
66.83170452495412
 30
0.0
 10
65.3357718477488
 20
66.83167770368473
 30
0.0
 10
65.33577223532832
 20
66.83165538462262
 30
0.0
 10
65.33577244719186
 20
66.83164318429945
 30
0.0
  0
LINE
  5
146
330
1F
100
AcDbEntity
  8
0
  6
Continuous
 62
     7
370
    15
100
AcDbLine
 10
65.3357724472
 20
66.8317452631
 30
0.0
 11
65.3357636885
 21
66.8317206234
 31
0.0
  0
LINE
  5
147
330
1F
100
AcDbEntity
  8
0
  6
Continuous
 62
     7
370
    15
100
AcDbLine
 10
65.3378244597
 20
66.8377268474
 30
0.0
 11
65.3357724472
 21
66.8317452631
 31
0.0
  0
LINE
  5
148
330
1F
100
AcDbEntity
  8
0
  6
Continuous
 62
     7
370
    15
100
AcDbLine
 10
65.3398111835
 20
66.8431863043
 30
0.0
 11
65.3378244597
 21
66.8377268474
 31
0.0
  0
LINE
  5
149
330
1F
100
AcDbEntity
  8
0
  6
Continuous
 62
     7
370
    15
100
AcDbLine
 10
65.3378244597
 20
64.7762169021
 30
0.0
 11
65.3398111835
 21
64.7707568585
 31
0.0
  0
LINE
  5
14A
330
1F
100
AcDbEntity
  8
0
  6
Continuous
 62
     7
370
    15
100
AcDbLine
 10
65.3357724472
 20
64.7821978997
 30
0.0
 11
65.3378244597
 21
64.7762169021
 31
0.0
  0
LINE
  5
14B
330
1F
100
AcDbEntity
  8
0
  6
Continuous
 62
     7
370
    15
100
AcDbLine
 10
65.3236710195
 20
66.84817174
 30
0.0
 11
65.3257159096
 21
66.8537919418
 31
0.0
  0
LINE
  5
14C
330
1F
100
AcDbEntity
  8
0
  6
Continuous
 62
     7
370
    15
100
AcDbLine
 10
65.3236710195
 20
66.84817174
 30
0.0
 11
63.3880739293
 21
66.84817174
 31
0.0
  0
LINE
  5
14D
330
1F
100
AcDbEntity
  8
0
  6
Continuous
 62
     7
370
    15
100
AcDbLine
 10
63.3860289795
 20
66.8537919418
 30
0.0
 11
63.3880739293
 21
66.84817174
 31
0.0
  0
LINE
  5
14E
330
1F
100
AcDbEntity
  8
0
  6
Continuous
 62
     7
370
    15
100
AcDbLine
 10
63.3759812556
 20
66.8317206234
 30
0.0
 11
63.3759724557
 21
66.8317452631
 31
0.0
  0
SPLINE
  5
14F
330
1F
100
AcDbEntity
  8
0
  6
Continuous
 62
     7
370
    15
100
AcDbSpline
210
0.0
220
0.0
230
1.0
 70
     8
 71
     3
 72
    10
 73
     6
 74
     0
 42
0.000000001
 43
0.00000001
 40
0.0
 40
0.0
 40
0.0
 40
0.0
 40
0.2403510096051281
 40
0.6766113970644135
 40
1.0
 40
1.0
 40
1.0
 40
1.0
 10
63.3759724557186
 20
66.83164318429945
 30
0.0
 10
63.37597256210854
 20
66.83164981633675
 30
0.0
 10
63.3759728616065
 20
66.8316684861648
 30
0.0
 10
63.37597471940762
 20
66.83169666871846
 30
0.0
 10
63.37597930394359
 20
66.83171347067756
 30
0.0
 10
63.37598125561694
 20
66.83172062340488
 30
0.0
  0
LINE
  5
150
330
1F
100
AcDbEntity
  8
0
  6
Continuous
 62
     7
370
    15
100
AcDbLine
 10
63.3759724557
 20
64.7822999785
 30
0.0
 11
63.3759724557
 21
66.8316431843
 31
0.0
  0
SPLINE
  5
151
330
1F
100
AcDbEntity
  8
0
  6
Continuous
 62
     7
370
    15
100
AcDbSpline
210
0.0
220
0.0
230
1.0
 70
     8
 71
     3
 72
    10
 73
     6
 74
     0
 42
0.000000001
 43
0.00000001
 40
0.0
 40
0.0
 40
0.0
 40
0.0
 40
0.1977075034055772
 40
0.5646833338231356
 40
1.0
 40
1.0
 40
1.0
 40
1.0
 10
63.37598125561694
 20
64.78222312604152
 30
0.0
 10
63.3759800170068
 20
64.78222730106718
 30
0.0
 10
63.37597647934385
 20
64.78223922558884
 30
0.0
 10
63.37597304410838
 20
64.7822658532037
 30
0.0
 10
63.37597266267883
 20
64.78228797525935
 30
0.0
 10
63.3759724557186
 20
64.78229997848705
 30
0.0
  0
LINE
  5
152
330
1F
100
AcDbEntity
  8
0
  6
Continuous
 62
     7
370
    15
100
AcDbLine
 10
63.3759724557
 20
64.7821978997
 30
0.0
 11
63.3759812556
 21
64.782223126
 31
0.0
  0
LINE
  5
153
330
1F
100
AcDbEntity
  8
0
  6
Continuous
 62
     7
370
    15
100
AcDbLine
 10
63.3739204661
 20
64.7762169021
 30
0.0
 11
63.3759724557
 21
64.7821978997
 31
0.0
  0
LINE
  5
154
330
1F
100
AcDbEntity
  8
0
  6
Continuous
 62
     7
370
    15
100
AcDbLine
 10
63.3719337424
 20
64.7707568585
 30
0.0
 11
63.3739204661
 21
64.7762169021
 31
0.0
  0
LINE
  5
155
330
1F
100
AcDbEntity
  8
0
  6
Continuous
 62
     7
370
    15
100
AcDbLine
 10
63.3739204661
 20
66.8377268474
 30
0.0
 11
63.3719337424
 21
66.8431863043
 31
0.0
  0
LINE
  5
156
330
1F
100
AcDbEntity
  8
0
  6
Continuous
 62
     7
370
    15
100
AcDbLine
 10
63.3759724557
 20
66.8317452631
 30
0.0
 11
63.3739204661
 21
66.8377268474
 31
0.0
  0
LINE
  5
157
330
1F
100
AcDbEntity
  8
0
  6
Continuous
 62
     7
370
    15
100
AcDbLine
 10
65.3236710195
 20
64.7657720094
 30
0.0
 11
65.3237821709
 21
64.7657819826
 31
0.0
  0
SPLINE
  5
158
330
1F
100
AcDbEntity
  8
0
  6
Continuous
 62
     7
370
    15
100
AcDbSpline
210
0.0
220
0.0
230
1.0
 70
     8
 71
     3
 72
    12
 73
     8
 74
     0
 42
0.000000001
 43
0.00000001
 40
0.0
 40
0.0
 40
0.0
 40
0.0
 40
0.255571726701495
 40
0.5111527348029138
 40
0.7667549053683957
 40
0.9550403983598349
 40
1.0
 40
1.0
 40
1.0
 40
1.0
 10
65.32378217091289
 20
64.76578198263768
 30
0.0
 10
65.32541643690396
 20
64.76619895891804
 30
0.0
 10
65.3286850282365
 20
64.76703292662178
 30
0.0
 10
65.33302959869643
 20
64.76963465942839
 30
0.0
 10
65.33602850350746
 20
64.77260853007093
 30
0.0
 10
65.33735771757657
 20
64.77490486299303
 30
0.0
 10
65.33774903131354
 20
64.77600486844959
 30
0.0
 10
65.33782445973684
 20
64.7762169020926
 30
0.0
  0
ARC
  5
159
330
1F
100
AcDbEntity
  8
0
  6
Continuous
 62
     7
370
    15
100
AcDbCircle
 10
65.3233312146
 20
64.7779919219
 30
0.0
 40
0.0179982086768913
100
AcDbArc
 50
277.6138644292
 51
336.2974846836
  0
LINE
  5
15A
330
1F
100
AcDbEntity
  8
0
  6
Continuous
 62
     7
370
    15
100
AcDbLine
 10
63.3880739293
 20
66.84817174
 30
0.0
 11
63.3879627572
 21
66.8481623535
 31
0.0
  0
SPLINE
  5
15B
330
1F
100
AcDbEntity
  8
0
  6
Continuous
 62
     7
370
    15
100
AcDbSpline
210
0.0
220
0.0
230
1.0
 70
     8
 71
     3
 72
    12
 73
     8
 74
     0
 42
0.000000001
 43
0.00000001
 40
0.0
 40
0.0
 40
0.0
 40
0.0
 40
0.2555898659061289
 40
0.5111755528767105
 40
0.7667761322757839
 40
0.9550411398257642
 40
1.0
 40
1.0
 40
1.0
 40
1.0
 10
63.38796275720561
 20
66.84816235346861
 30
0.0
 10
63.3863285232102
 20
66.84774488727818
 30
0.0
 10
63.38306008193936
 20
66.84690996172297
 30
0.0
 10
63.378715163657
 20
66.84430868582716
 30
0.0
 10
63.37571660859791
 20
66.84133450777081
 30
0.0
 10
63.37438703048647
 20
66.83903882729982
 30
0.0
 10
63.37399587049641
 20
66.83793888468405
 30
0.0
 10
63.37392046609003
 20
66.83772684735379
 30
0.0
  0
ARC
  5
15C
330
1F
100
AcDbEntity
  8
0
  6
Continuous
 62
     7
370
    15
100
AcDbCircle
 10
63.3884146663
 20
66.8359519534
 30
0.0
 40
0.0179987968232425
100
AcDbArc
 50
97.6167994109
 51
156.3007838114
  0
ARC
  5
15D
330
1F
100
AcDbEntity
  8
0
  6
Continuous
 62
     7
370
    15
100
AcDbCircle
 10
63.3884135396
 20
64.7779916856
 30
0.0
 40
0.0179979564863736
100
AcDbArc
 50
203.7020459107
 51
262.3864617693
  0
ARC
  5
15E
330
1F
100
AcDbEntity
  8
0
  6
Continuous
 62
     7
370
    15
100
AcDbCircle
 10
65.3233300879
 20
66.835951717
 30
0.0
 40
0.0179990489716431
100
AcDbArc
 50
23.6996855008
 51
82.3828744884
  0
SPLINE
  5
15F
330
1F
100
AcDbEntity
  8
0
  6
Continuous
 62
     7
370
    15
100
AcDbSpline
210
0.0
220
0.0
230
1.0
 70
     8
 71
     3
 72
    12
 73
     8
 74
     0
 42
0.000000001
 43
0.00000001
 40
0.0
 40
0.0
 40
0.0
 40
0.0
 40
0.0449586997165015
 40
0.2332440608144963
 40
0.4888437279775895
 40
0.7444285027653418
 40
1.0
 40
1.0
 40
1.0
 40
1.0
 10
63.37392046609003
 20
64.7762169020926
 30
0.0
 10
63.37399587260285
 20
64.77600486794812
 30
0.0
 10
63.37438707878484
 20
64.77490484269819
 30
0.0
 10
63.37571642647178
 20
64.77260855987971
 30
0.0
 10
63.37871521460379
 20
64.76963460781333
 30
0.0
 10
63.38305988498227
 20
64.76703295177485
 30
0.0
 10
63.38632849476579
 20
64.76619896512899
 30
0.0
 10
63.38796275720561
 20
64.76578198263768
 30
0.0
  0
LINE
  5
160
330
1F
100
AcDbEntity
  8
0
  6
Continuous
 62
     7
370
    15
100
AcDbLine
 10
63.3879627572
 20
64.7657819826
 30
0.0
 11
63.3880739293
 21
64.7657720094
 31
0.0
  0
SPLINE
  5
161
330
1F
100
AcDbEntity
  8
0
  6
Continuous
 62
     7
370
    15
100
AcDbSpline
210
0.0
220
0.0
230
1.0
 70
     8
 71
     3
 72
    12
 73
     8
 74
     0
 42
0.000000001
 43
0.00000001
 40
0.0
 40
0.0
 40
0.0
 40
0.0
 40
0.0449597621018678
 40
0.2332249014710494
 40
0.4888279842857056
 40
0.7444099045607693
 40
1.0
 40
1.0
 40
1.0
 40
1.0
 10
65.33782445973684
 20
66.83772684735379
 30
0.0
 10
65.33774903341988
 20
66.83793888418262
 30
0.0
 10
65.33735776588375
 20
66.83903880700693
 30
0.0
 10
65.33602832137889
 20
66.8413345375774
 30
0.0
 10
65.33302964964236
 20
66.84430863421127
 30
0.0
 10
65.32868483128236
 20
66.84690998688302
 30
0.0
 10
65.32541640845999
 20
66.84774489348919
 30
0.0
 10
65.32378217091289
 20
66.84816235346861
 30
0.0
  0
LINE
  5
162
330
1F
100
AcDbEntity
  8
0
  6
Continuous
 62
     7
370
    15
100
AcDbLine
 10
65.3237821709
 20
66.8481623535
 30
0.0
 11
65.3236710195
 21
66.84817174
 31
0.0
  0
LINE
  5
163
330
1F
100
AcDbEntity
  8
0
  6
Continuous
 62
     7
370
    15
100
AcDbLine
 10
65.3237821709
 20
64.7657819826
 30
0.0
 11
65.3216595758
 21
64.7719448448
 31
0.0
  0
SPLINE
  5
164
330
1F
100
AcDbEntity
  8
0
  6
Continuous
 62
     7
370
    15
100
AcDbSpline
210
0.0
220
0.0
230
1.0
 70
     8
 71
     3
 72
    12
 73
     8
 74
     0
 42
0.000000001
 43
0.00000001
 40
0.0
 40
0.0
 40
0.0
 40
0.0
 40
0.1100414989808227
 40
0.2336893117865753
 40
0.4891180281715035
 40
0.7445606130111626
 40
1.0
 40
1.0
 40
1.0
 40
1.0
 10
65.32165957584995
 20
64.77194484477711
 30
0.0
 10
65.32236225481975
 20
64.7720921673629
 30
0.0
 10
65.32385449698637
 20
64.77240502854711
 30
0.0
 10
65.32690982798583
 20
64.77346763267873
 30
0.0
 10
65.33056182398843
 20
64.77545816872687
 30
0.0
 10
65.3340745373669
 20
64.77863793600893
 30
0.0
 10
65.3352006405006
 20
64.78102806768432
 30
0.0
 10
65.33576368854304
 20
64.78222312604152
 30
0.0
  0
SPLINE
  5
165
330
1F
100
AcDbEntity
  8
0
  6
Continuous
 62
     7
370
    15
100
AcDbSpline
210
0.0
220
0.0
230
1.0
 70
     8
 71
     3
 72
    12
 73
     8
 74
     0
 42
0.000000001
 43
0.00000001
 40
0.0
 40
0.0
 40
0.0
 40
0.0
 40
0.2554412814467906
 40
0.5108673425509344
 40
0.7663119388328844
 40
0.8899510281661496
 40
1.0
 40
1.0
 40
1.0
 40
1.0
 10
65.33576368854304
 20
66.83172062340488
 30
0.0
 10
65.33520068496918
 20
66.83291575460589
 30
0.0
 10
65.33407471136773
 20
66.83530594579663
 30
0.0
 10
65.33056141705654
 20
66.83848461669861
 30
0.0
 10
65.32691018720396
 20
66.84047667175247
 30
0.0
 10
65.3238543004017
 20
66.84153784066214
 30
0.0
 10
65.32236222688022
 20
66.84185129293397
 30
0.0
 10
65.32165957584995
 20
66.8419989046693
 30
0.0
  0
LINE
  5
166
330
1F
100
AcDbEntity
  8
0
  6
Continuous
 62
     7
370
    15
100
AcDbLine
 10
65.3216595758
 20
66.8419989047
 30
0.0
 11
65.3237821709
 21
66.8481623535
 31
0.0
  0
LINE
  5
167
330
1F
100
AcDbEntity
  8
0
  6
Continuous
 62
     7
370
    15
100
AcDbLine
 10
63.3879627572
 20
66.8481623535
 30
0.0
 11
63.3900852927
 21
66.8419989047
 31
0.0
  0
SPLINE
  5
168
330
1F
100
AcDbEntity
  8
0
  6
Continuous
 62
     7
370
    15
100
AcDbSpline
210
0.0
220
0.0
230
1.0
 70
     8
 71
     3
 72
    12
 73
     8
 74
     0
 42
0.000000001
 43
0.00000001
 40
0.0
 40
0.0
 40
0.0
 40
0.0
 40
0.1100488551508583
 40
0.2336895121413517
 40
0.4891330168679873
 40
0.7445591256439149
 40
1.0
 40
1.0
 40
1.0
 40
1.0
 10
63.3900852926859
 20
66.8419989046693
 30
0.0
 10
63.38938264435007
 20
66.84185129179305
 30
0.0
 10
63.38789056570388
 20
66.84153783481987
 30
0.0
 10
63.38483467447532
 20
66.84047668829473
 30
0.0
 10
63.38118346676276
 20
66.83848460518382
 30
0.0
 10
63.37767018052472
 20
66.83530595100622
 30
0.0
 10
63.37654424143386
 20
66.83291575563325
 30
0.0
 10
63.37598125561694
 20
66.83172062340488
 30
0.0
  0
SPLINE
  5
169
330
1F
100
AcDbEntity
  8
0
  6
Continuous
 62
     7
370
    15
100
AcDbSpline
210
0.0
220
0.0
230
1.0
 70
     8
 71
     3
 72
    12
 73
     8
 74
     0
 42
0.000000001
 43
0.00000001
 40
0.0
 40
0.0
 40
0.0
 40
0.0
 40
0.1100413822828198
 40
0.2336907626707702
 40
0.4891183874341319
 40
0.7445610200572844
 40
1.0
 40
1.0
 40
1.0
 40
1.0
 10
63.3900852926859
 20
64.77194484477711
 30
0.0
 10
63.38938261641095
 20
64.7720921685047
 30
0.0
 10
63.38789036911998
 20
64.77240503438799
 30
0.0
 10
63.38483503369075
 20
64.77346761613228
 30
0.0
 10
63.3811830598316
 20
64.77545818024562
 30
0.0
 10
63.37767035452444
 20
64.7786379307979
 30
0.0
 10
63.3765442859024
 20
64.78102806665662
 30
0.0
 10
63.37598125561694
 20
64.78222312604152
 30
0.0
  0
LINE
  5
16A
330
1F
100
AcDbEntity
  8
0
  6
Continuous
 62
     7
370
    15
100
AcDbLine
 10
63.3900852927
 20
64.7719448448
 30
0.0
 11
63.3879627572
 21
64.7657819826
 31
0.0
  0
ARC
  5
16B
330
1F
100
AcDbEntity
  8
0
  6
Continuous
 62
     7
370
    15
100
AcDbCircle
 10
63.4187537866
 20
64.8715040826
 30
0.0
 40
0.0164623585760277
100
AcDbArc
 50
198.9641260855
 51
266.446356971
  0
SPLINE
  5
16C
330
1F
100
AcDbEntity
  8
0
  6
Continuous
 62
     7
370
    15
100
AcDbSpline
210
0.0
220
0.0
230
1.0
 70
     8
 71
     3
 72
    11
 73
     7
 74
     0
 42
0.000000001
 43
0.00000001
 40
0.0
 40
0.0
 40
0.0
 40
0.0
 40
0.4134495015288176
 40
0.7091339931285058
 40
0.999415275731325
 40
0.9999999999999999
 40
0.9999999999999999
 40
0.9999999999999999
 40
0.9999999999999999
 10
63.41773339995927
 20
64.85507337780253
 30
0.0
 10
63.41411746045726
 20
64.84372453354547
 30
0.0
 10
63.40791552864093
 20
64.82425939641108
 30
0.0
 10
63.39891111014379
 20
64.79695648809873
 30
0.0
 10
63.39296065749675
 20
64.78032750348652
 30
0.0
 10
63.39009106139878
 20
64.77196166252178
 30
0.0
 10
63.3900852926859
 20
64.77194484477711
 30
0.0
  0
SPLINE
  5
16D
330
1F
100
AcDbEntity
  8
0
  6
Continuous
 62
     7
370
    15
100
AcDbSpline
210
0.0
220
0.0
230
1.0
 70
     8
 71
     3
 72
    10
 73
     6
 74
     0
 42
0.000000001
 43
0.00000001
 40
0.0
 40
0.0
 40
0.0
 40
0.0
 40
0.2937437182961432
 40
0.5889062600549517
 40
0.9999999999999999
 40
0.9999999999999999
 40
0.9999999999999999
 40
0.9999999999999999
 10
63.3759724557186
 20
64.78229997848705
 30
0.0
 10
63.37882337571659
 20
64.7907661524885
 30
0.0
 10
63.38453898605702
 20
64.80773939330226
 30
0.0
 10
63.39366993113845
 20
64.8349176393383
 30
0.0
 10
63.39968420995964
 20
64.85466169775962
 30
0.0
 10
63.403184968024
 20
64.86615420979581
 30
0.0
  0
SPLINE
  5
16E
330
1F
100
AcDbEntity
  8
0
  6
Continuous
 62
     7
370
    15
100
AcDbSpline
210
0.0
220
0.0
230
1.0
 70
     8
 71
     3
 72
    10
 73
     6
 74
     0
 42
0.000000001
 43
0.00000001
 40
0.0
 40
0.0
 40
0.0
 40
0.0
 40
0.277311842375261
 40
0.5865496922720801
 40
0.9999999999999999
 40
0.9999999999999999
 40
0.9999999999999999
 40
0.9999999999999999
 10
63.403184968024
 20
66.74778953965058
 30
0.0
 10
63.40093793463934
 20
66.75556097951775
 30
0.0
 10
63.39618517424866
 20
66.77199855976515
 30
0.0
 10
63.38676625695643
 20
66.79916015172817
 30
0.0
 10
63.37990041043489
 20
66.81982233655766
 30
0.0
 10
63.3759724557186
 20
66.83164318429945
 30
0.0
  0
SPLINE
  5
16F
330
1F
100
AcDbEntity
  8
0
  6
Continuous
 62
     7
370
    15
100
AcDbSpline
210
0.0
220
0.0
230
1.0
 70
     8
 71
     3
 72
    11
 73
     7
 74
     0
 42
0.000000001
 43
0.00000001
 40
0.0
 40
0.0
 40
0.0
 40
0.0
 40
0.0005847372015929
 40
0.4104951884238728
 40
0.7199205007161378
 40
1.0
 40
1.0
 40
1.0
 40
1.0
 10
63.3900852926859
 20
66.8419989046693
 30
0.0
 10
63.39009106152503
 20
66.84198208681104
 30
0.0
 10
63.39414088201855
 20
66.83017567210979
 30
0.0
 10
63.40119964277221
 20
66.81018217812378
 30
0.0
 10
63.41040443172777
 20
66.78255345481004
 30
0.0
 10
63.41537285397551
 20
66.76649832213911
 30
0.0
 10
63.41773339995927
 20
66.75887037164387
 30
0.0
  0
ARC
  5
170
330
1F
100
AcDbEntity
  8
0
  6
Continuous
 62
     7
370
    15
100
AcDbCircle
 10
63.418755277
 20
66.7424377099
 30
0.0
 40
0.0164644041377527
100
AcDbArc
 50
93.5583977382
 51
161.0311192053
  0
SPLINE
  5
171
330
1F
100
AcDbEntity
  8
0
  6
Continuous
 62
     7
370
    15
100
AcDbSpline
210
0.0
220
0.0
230
1.0
 70
     8
 71
     3
 72
    10
 73
     6
 74
     0
 42
0.000000001
 43
0.00000001
 40
0.0
 40
0.0
 40
0.0
 40
0.0
 40
0.3854504538898438
 40
0.6937337453488858
 40
1.0
 40
1.0
 40
1.0
 40
1.0
 10
65.30855993488646
 20
64.86615420979581
 30
0.0
 10
65.31182053463179
 20
64.8553647926895
 30
0.0
 10
65.31768896220942
 20
64.83594599926543
 30
0.0
 10
65.32685669845864
 20
64.80882482526154
 30
0.0
 10
65.33280704089707
 20
64.79112222661757
 30
0.0
 10
65.33577244719186
 20
64.78229997848705
 30
0.0
  0
SPLINE
  5
172
330
1F
100
AcDbEntity
  8
0
  6
Continuous
 62
     7
370
    15
100
AcDbSpline
210
0.0
220
0.0
230
1.0
 70
     8
 71
     3
 72
    11
 73
     7
 74
     0
 42
0.000000001
 43
0.00000001
 40
0.0
 40
0.0
 40
0.0
 40
0.0
 40
0.0005846398379867
 40
0.3033555833998195
 40
0.612060449469674
 40
1.0
 40
1.0
 40
1.0
 40
1.0
 10
65.32165957584995
 20
64.77194484477711
 30
0.0
 10
65.32165382165218
 20
64.77196166254481
 30
0.0
 10
65.31866810649318
 20
64.78068799866308
 30
0.0
 10
65.31246356390153
 20
64.79799435663257
 30
0.0
 10
65.30346745556552
 20
64.82533788113544
 30
0.0
 10
65.29739377419594
 20
64.84443743299657
 30
0.0
 10
65.29401153045087
 20
64.85507337780253
 30
0.0
  0
ARC
  5
173
330
1F
100
AcDbEntity
  8
0
  6
Continuous
 62
     7
370
    15
100
AcDbCircle
 10
65.2929910784
 20
64.87150413
 30
0.0
 40
0.0164624098900071
100
AcDbArc
 50
273.5538603064
 51
341.0357610448
  0
SPLINE
  5
174
330
1F
100
AcDbEntity
  8
0
  6
Continuous
 62
     7
370
    15
100
AcDbSpline
210
0.0
220
0.0
230
1.0
 70
     8
 71
     3
 72
    10
 73
     6
 74
     0
 42
0.000000001
 43
0.00000001
 40
0.0
 40
0.0
 40
0.0
 40
0.0
 40
0.4134513217886824
 40
0.7100948611481523
 40
0.9999999999999999
 40
0.9999999999999999
 40
0.9999999999999999
 40
0.9999999999999999
 10
65.33577244719186
 20
66.83164318429945
 30
0.0
 10
65.33184174214618
 20
66.8198192931001
 30
0.0
 10
65.32509083023339
 20
66.79951198257291
 30
0.0
 10
65.31569814756925
 20
66.77235611670855
 30
0.0
 10
65.31092104564742
 20
66.75591544063299
 30
0.0
 10
65.30855993488646
 20
66.74778953965058
 30
0.0
  0
ARC
  5
175
330
1F
100
AcDbEntity
  8
0
  6
Continuous
 62
     7
370
    15
100
AcDbCircle
 10
65.2929895879
 20
66.7424376626
 30
0.0
 40
0.0164644554780915
100
AcDbArc
 50
18.9689936812
 51
86.4413849676
  0
SPLINE
  5
176
330
1F
100
AcDbEntity
  8
0
  6
Continuous
 62
     7
370
    15
100
AcDbSpline
210
0.0
220
0.0
230
1.0
 70
     8
 71
     3
 72
    11
 73
     7
 74
     0
 42
0.000000001
 43
0.00000001
 40
0.0
 40
0.0
 40
0.0
 40
0.0
 40
0.2926645162989643
 40
0.5895033226674251
 40
0.9994153459176535
 40
0.9999999999999999
 40
0.9999999999999999
 40
0.9999999999999999
 40
0.9999999999999999
 10
65.29401153045087
 20
66.75887037164387
 30
0.0
 10
65.29649042446684
 20
66.76684555554282
 30
0.0
 10
65.30148356910027
 20
66.78290967382667
 30
0.0
 10
65.3106535762247
 20
66.810528722746
 30
0.0
 10
65.3176136123286
 20
66.83017395038428
 30
0.0
 10
65.32165382154075
 20
66.84198208681046
 30
0.0
 10
65.32165957584995
 20
66.8419989046693
 30
0.0
  0
SPLINE
  5
177
330
1F
100
AcDbEntity
  8
0
  6
Continuous
 62
     7
370
    15
100
AcDbSpline
210
0.0
220
0.0
230
1.0
 70
     8
 71
     3
 72
    11
 73
     7
 74
     0
 42
0.000000001
 43
0.00000001
 40
0.0
 40
0.0
 40
0.0
 40
0.0
 40
0.0076240208013856
 40
0.2428797380399985
 40
0.5306437568800861
 40
0.9999999999999999
 40
0.9999999999999999
 40
0.9999999999999999
 40
0.9999999999999999
 10
65.0876231742501
 20
66.75777214433069
 30
0.0
 10
65.0881476726416
 20
66.75777527192331
 30
0.0
 10
65.10485670784063
 20
66.75787490817817
 30
0.0
 10
65.14136257460574
 20
66.75810097568144
 30
0.0
 10
65.20963405065159
 20
66.75847762826439
 30
0.0
 10
65.26172139137483
 20
66.75872007397706
 30
0.0
 10
65.29401153045087
 20
66.75887037164387
 30
0.0
  0
SPLINE
  5
178
330
1F
100
AcDbEntity
  8
0
  6
Continuous
 62
     7
370
    15
100
AcDbSpline
210
0.0
220
0.0
230
1.0
 70
     8
 71
     3
 72
    19
 73
    15
 74
     0
 42
0.000000001
 43
0.00000001
 40
0.0
 40
0.0
 40
0.0
 40
0.0
 40
0.0010648935812549
 40
0.0014561349529731
 40
0.003997911343558
 40
0.0141653342483501
 40
0.0343182404257382
 40
0.1344693722193861
 40
0.4999992488188846
 40
0.6816528055028941
 40
0.8787091835477501
 40
0.992541451204497
 40
0.998935143996599
 40
1.0
 40
1.0
 40
1.0
 40
1.0
 10
63.62412166907771
 20
66.75777214433069
 30
0.0
 10
63.62464115572453
 20
66.75777525161374
 30
0.0
 10
63.62535150150681
 20
66.75777950051106
 30
0.0
 10
63.62730181169248
 20
66.7577914983201
 30
0.0
 10
63.63369258540602
 20
66.75783240076066
 30
0.0
 10
63.64972368703799
 20
66.7579301821179
 30
0.0
 10
63.71337131198514
 20
66.7583466894292
 30
0.0
 10
63.95037089688244
 20
66.760063347936
 30
0.0
 10
64.2661671128599
 20
66.7622600073587
 30
0.0
 10
64.62924669682218
 20
66.76109948377713
 30
0.0
 10
64.8695180132278
 20
66.75924832672729
 30
0.0
 10
65.02429597536441
 20
66.75817346693604
 30
0.0
 10
65.08346519894377
 20
66.75779711845047
 30
0.0
 10
65.08710370520325
 20
66.7577752644267
 30
0.0
 10
65.0876231742501
 20
66.75777214433069
 30
0.0
  0
SPLINE
  5
179
330
1F
100
AcDbEntity
  8
0
  6
Continuous
 62
     7
370
    15
100
AcDbSpline
210
0.0
220
0.0
230
1.0
 70
     8
 71
     3
 72
    11
 73
     7
 74
     0
 42
0.000000001
 43
0.00000001
 40
0.0
 40
0.0
 40
0.0
 40
0.0
 40
0.4693561524684132
 40
0.7571207368303844
 40
0.9923763312697528
 40
1.0
 40
1.0
 40
1.0
 40
1.0
 10
63.41773339995927
 20
66.75887037164387
 30
0.0
 10
63.45002351917815
 20
66.75872007423156
 30
0.0
 10
63.50211087059936
 20
66.75847762873052
 30
0.0
 10
63.57038234202894
 20
66.75810097382701
 30
0.0
 10
63.60688819971383
 20
66.75787491267043
 30
0.0
 10
63.62359719513042
 20
66.75777527192592
 30
0.0
 10
63.62412166907771
 20
66.75777214433069
 30
0.0
  0
SPLINE
  5
17A
330
1F
100
AcDbEntity
  8
0
  6
Continuous
 62
     7
370
    15
100
AcDbSpline
210
0.0
220
0.0
230
1.0
 70
     8
 71
     3
 72
    11
 73
     7
 74
     0
 42
0.000000001
 43
0.00000001
 40
0.0
 40
0.0
 40
0.0
 40
0.0
 40
0.0076236687043878
 40
0.2428792794656487
 40
0.5306438628515247
 40
1.0
 40
1.0
 40
1.0
 40
1.0
 10
63.62412166907771
 20
64.85617160511572
 30
0.0
 10
63.62359719512959
 20
64.85616847765696
 30
0.0
 10
63.60688819850894
 20
64.85606884125383
 30
0.0
 10
63.57038234507802
 20
64.8558418815694
 30
0.0
 10
63.50211087106453
 20
64.8554655952853
 30
0.0
 10
63.45002351913458
 20
64.85522347413861
 30
0.0
 10
63.41773339995927
 20
64.85507337780253
 30
0.0
  0
SPLINE
  5
17B
330
1F
100
AcDbEntity
  8
0
  6
Continuous
 62
     7
370
    15
100
AcDbSpline
210
0.0
220
0.0
230
1.0
 70
     8
 71
     3
 72
    19
 73
    15
 74
     0
 42
0.000000001
 43
0.00000001
 40
0.0
 40
0.0
 40
0.0
 40
0.0
 40
0.0010648560022477
 40
0.0063310151379253
 40
0.1212908162050099
 40
0.3183471913264733
 40
0.5000007500551318
 40
0.8655306281710927
 40
0.9656817598562647
 40
0.9907195973363792
 40
0.9969789946374432
 40
0.998543865048604
 40
0.9989351064198986
 40
1.0
 40
1.0
 40
1.0
 40
1.0
 10
65.0876231742501
 20
64.85617160511572
 30
0.0
 10
65.08710370522313
 20
64.85616848540626
 30
0.0
 10
65.08401524418565
 20
64.85614993742635
 30
0.0
 10
65.02484596521492
 20
64.85577601599915
 30
0.0
 10
64.87006808595383
 20
64.8546979835239
 30
0.0
 10
64.62924667901433
 20
64.85284567877036
 30
0.0
 10
64.26616713077516
 20
64.8516831150674
 30
0.0
 10
63.95037085047942
 20
64.85387302265273
 30
0.0
 10
63.71098837401069
 20
64.85561917762348
 30
0.0
 10
63.6468640976056
 20
64.8560292191589
 30
0.0
 10
63.63083301417538
 20
64.85613062914322
 30
0.0
 10
63.6268252455015
 20
64.85615516563183
 30
0.0
 10
63.62535150147939
 20
64.85616425526783
 30
0.0
 10
63.62464115571294
 20
64.85616850050752
 30
0.0
 10
63.62412166907771
 20
64.85617160511572
 30
0.0
  0
SPLINE
  5
17C
330
1F
100
AcDbEntity
  8
0
  6
Continuous
 62
     7
370
    15
100
AcDbSpline
210
0.0
220
0.0
230
1.0
 70
     8
 71
     3
 72
    11
 73
     7
 74
     0
 42
0.000000001
 43
0.00000001
 40
0.0
 40
0.0
 40
0.0
 40
0.0
 40
0.4693562277999941
 40
0.757120245663991
 40
0.9923759792244748
 40
0.9999999999999999
 40
0.9999999999999999
 40
0.9999999999999999
 40
0.9999999999999999
 10
65.29401153045087
 20
64.85507337780253
 30
0.0
 10
65.26172139141842
 20
64.855223474393
 30
0.0
 10
65.20963405018642
 20
64.85546559575141
 30
0.0
 10
65.14136257155668
 20
64.85584187971597
 30
0.0
 10
65.10485670904552
 20
64.85606884574639
 30
0.0
 10
65.08814767264242
 20
64.8561684776596
 30
0.0
 10
65.0876231742501
 20
64.85617160511572
 30
0.0
  0
SPLINE
  5
17D
330
1F
100
AcDbEntity
  8
0
  6
Continuous
 62
     7
370
    15
100
AcDbSpline
210
0.0
220
0.0
230
1.0
 70
     8
 71
     3
 72
    12
 73
     8
 74
     0
 42
0.000000001
 43
0.00000001
 40
0.0
 40
0.0
 40
0.0
 40
0.0
 40
0.002363526001225
 40
0.007955985963514
 40
0.1555674772231645
 40
0.5114723604181187
 40
1.0
 40
1.0
 40
1.0
 40
1.0
 10
63.40507239955356
 20
66.1696854979578
 30
0.0
 10
63.40507142374349
 20
66.170138399462
 30
0.0
 10
63.40506813901915
 20
66.17166293441883
 30
0.0
 10
63.405002610739
 20
66.20147290276171
 30
0.0
 10
63.40477371271916
 20
66.29902788650043
 30
0.0
 10
63.40425033874943
 20
66.48911943001526
 30
0.0
 10
63.4039270055214
 20
66.65093141503115
 30
0.0
 10
63.40373994827949
 20
66.74454413714174
 30
0.0
  0
SPLINE
  5
17E
330
1F
100
AcDbEntity
  8
0
  6
Continuous
 62
     7
370
    15
100
AcDbSpline
210
0.0
220
0.0
230
1.0
 70
     8
 71
     3
 72
    14
 73
    10
 74
     0
 42
0.000000001
 43
0.00000001
 40
0.0
 40
0.0
 40
0.0
 40
0.0
 40
0.0018503762127057
 40
0.283893855198726
 40
0.499998773802364
 40
0.7820431542739464
 40
0.917412719840931
 40
0.9981496237872943
 40
1.0
 40
1.0
 40
1.0
 40
1.0
 10
63.40507239955356
 20
65.44425883814849
 30
0.0
 10
63.4050714703836
 20
65.44470626407316
 30
0.0
 10
63.40492891253841
 20
65.51335255870374
 30
0.0
 10
63.40471413100995
 20
65.6342558058104
 30
0.0
 10
63.40461466207268
 20
65.82291625841174
 30
0.0
 10
63.40472384035194
 20
65.97610926504572
 30
0.0
 10
63.40491980150738
 20
66.09656552194352
 30
0.0
 10
63.40503001467066
 20
66.1492682461664
 30
0.0
 10
63.40507147072652
 20
66.16923807202645
 30
0.0
 10
63.40507239955356
 20
66.1696854979578
 30
0.0
  0
SPLINE
  5
17F
330
1F
100
AcDbEntity
  8
0
  6
Continuous
 62
     7
370
    15
100
AcDbSpline
210
0.0
220
0.0
230
1.0
 70
     8
 71
     3
 72
    14
 73
    10
 74
     0
 42
0.000000001
 43
0.00000001
 40
0.0
 40
0.0
 40
0.0
 40
0.0
 40
0.1326243968172246
 40
0.4885282326049916
 40
0.7973360028851717
 40
0.9499443263840651
 40
0.9880966299581745
 40
0.9976344358735155
 40
1.0
 40
1.0
 40
1.0
 40
1.0
 10
63.40373994827949
 20
64.86939961230465
 30
0.0
 10
63.40378586369728
 20
64.89481356321757
 30
0.0
 10
63.40395499530835
 20
64.98842705229607
 30
0.0
 10
63.40430837255601
 20
65.14121270578345
 30
0.0
 10
63.40472534583836
 20
65.29782499443502
 30
0.0
 10
63.40495963720324
 20
65.39355161483961
 30
0.0
 10
63.4050453572812
 20
65.43193291463504
 30
0.0
 10
63.40506651111425
 20
65.44152460512859
 30
0.0
 10
63.40507142334324
 20
65.44380554545899
 30
0.0
 10
63.40507239955356
 20
65.44425883814849
 30
0.0
  0
LINE
  5
180
330
1F
100
AcDbEntity
  8
0
  6
Continuous
 62
     7
370
    15
100
AcDbLine
 10
63.403184968
 20
64.8661542098
 30
0.0
 11
63.4037399483
 21
64.8693996123
 31
0.0
  0
LINE
  5
181
330
1F
100
AcDbEntity
  8
0
  6
Continuous
 62
     7
370
    15
100
AcDbLine
 10
63.4037399483
 20
66.7445441371
 30
0.0
 11
63.403184968
 21
66.7477895397
 31
0.0
  0
SPLINE
  5
182
330
1F
100
AcDbEntity
  8
0
  6
Continuous
 62
     7
370
    15
100
AcDbSpline
210
0.0
220
0.0
230
1.0
 70
     8
 71
     3
 72
    16
 73
    12
 74
     0
 42
0.000000001
 43
0.00000001
 40
0.0
 40
0.0
 40
0.0
 40
0.0
 40
0.0023655642049348
 40
0.0031891155588906
 40
0.0064854130951538
 40
0.0196675052052742
 40
0.0723980910544999
 40
0.2026639995341843
 40
0.5114717685527007
 40
0.8673756036238207
 40
1.0
 40
1.0
 40
1.0
 40
1.0
 10
65.30667244606589
 20
65.44425883814849
 30
0.0
 10
65.30667343078764
 20
65.44380554751976
 30
0.0
 10
65.30667475833202
 20
65.44319444755732
 30
0.0
 10
65.30667746561691
 20
65.44195168815989
 30
0.0
 10
65.30668470199107
 20
65.43863631448599
 30
0.0
 10
65.30671391878593
 20
65.42537437458617
 30
0.0
 10
65.30679946612607
 20
65.38778271470586
 30
0.0
 10
65.30703079143404
 20
65.29354374027787
 30
0.0
 10
65.30743644786763
 20
65.14121273543745
 30
0.0
 10
65.30778995924824
 20
64.98842704990517
 30
0.0
 10
65.30795908268256
 20
64.89481356268796
 30
0.0
 10
65.3080049958805
 20
64.86939961230465
 30
0.0
  0
SPLINE
  5
183
330
1F
100
AcDbEntity
  8
0
  6
Continuous
 62
     7
370
    15
100
AcDbSpline
210
0.0
220
0.0
230
1.0
 70
     8
 71
     3
 72
    14
 73
    10
 74
     0
 42
0.000000001
 43
0.00000001
 40
0.0
 40
0.0
 40
0.0
 40
0.0
 40
0.0018503765193003
 40
0.0825872801115929
 40
0.2179568459042511
 40
0.5000012262035232
 40
0.7161061447165504
 40
0.9981496234806998
 40
1.0
 40
1.0
 40
1.0
 40
1.0
 10
65.30667244606589
 20
66.1696854979578
 30
0.0
 10
65.3066734104814
 20
66.1692380720274
 30
0.0
 10
65.30671645493865
 20
66.1492682495302
 30
0.0
 10
65.30682376319844
 20
66.09656551909106
 30
0.0
 10
65.30702206289058
 20
65.9761092673958
 30
0.0
 10
65.30713057586996
 20
65.82291625656664
 30
0.0
 10
65.30702900025307
 20
65.63425580996098
 30
0.0
 10
65.30682138004049
 20
65.51335254730564
 30
0.0
 10
65.30667341050857
 20
65.44470626407288
 30
0.0
 10
65.30667244606589
 20
65.44425883814849
 30
0.0
  0
SPLINE
  5
184
330
1F
100
AcDbEntity
  8
0
  6
Continuous
 62
     7
370
    15
100
AcDbSpline
210
0.0
220
0.0
230
1.0
 70
     8
 71
     3
 72
    12
 73
     8
 74
     0
 42
0.000000001
 43
0.00000001
 40
0.0
 40
0.0
 40
0.0
 40
0.0
 40
0.488527639945914
 40
0.8444325229094378
 40
0.9872250856527596
 40
0.9976364739127722
 40
1.0
 40
1.0
 40
1.0
 40
1.0
 10
65.3080049958805
 20
66.74454413714174
 30
0.0
 10
65.30781780118538
 20
66.65093139749351
 30
0.0
 10
65.30749423036616
 20
66.48911938225858
 30
0.0
 10
65.30697414509535
 20
66.29995137118736
 30
0.0
 10
65.30674402410277
 20
66.2023962129234
 30
0.0
 10
65.30667875498996
 20
66.1725863432384
 30
0.0
 10
65.30667343106211
 20
66.17013839953148
 30
0.0
 10
65.30667244606589
 20
66.1696854979578
 30
0.0
  0
LINE
  5
185
330
1F
100
AcDbEntity
  8
0
  6
Continuous
 62
     7
370
    15
100
AcDbLine
 10
65.3085599349
 20
66.7477895397
 30
0.0
 11
65.3080049959
 21
66.7445441371
 31
0.0
  0
LINE
  5
186
330
1F
100
AcDbEntity
  8
0
  6
Continuous
 62
     7
370
    15
100
AcDbLine
 10
65.3080049959
 20
64.8693996123
 30
0.0
 11
65.3085599349
 21
64.8661542098
 31
0.0
  0
SPLINE
  5
187
330
1F
100
AcDbEntity
  8
0
  6
Continuous
 62
     7
370
    15
100
AcDbSpline
210
0.0
220
0.0
230
1.0
 70
     8
 71
     3
 72
    19
 73
    15
 74
     0
 42
0.000000001
 43
0.00000001
 40
0.0
 40
0.0
 40
0.0
 40
0.0
 40
0.0010700631742561
 40
0.0066153583192435
 40
0.1213162075622048
 40
0.3183931312102977
 40
0.5000008542427904
 40
0.8655020819314917
 40
0.9656755895854284
 40
0.9907180295036582
 40
0.9969784980233323
 40
0.9985436637554636
 40
0.9989298992480026
 40
1.0
 40
1.0
 40
1.0
 40
1.0
 10
65.0876231742501
 20
66.75777214433069
 30
0.0
 10
65.0871011629852
 20
66.75776901923153
 30
0.0
 10
65.08387397822914
 20
66.75774969920332
 30
0.0
 10
65.02469218014033
 20
66.75738750490785
 30
0.0
 10
64.86989307270338
 20
66.75654590327002
 30
0.0
 10
64.62921248023909
 20
66.75704684867776
 30
0.0
 10
64.26615826468927
 20
66.75840493792519
 30
0.0
 10
63.95038913045846
 20
66.75613046080038
 30
0.0
 10
63.71100647473062
 20
66.7572617068312
 30
0.0
 10
63.64686818591463
 20
66.75763490954469
 30
0.0
 10
63.63083415426959
 20
66.75773114200706
 30
0.0
 10
63.6268281140633
 20
66.75775562590275
 30
0.0
 10
63.62535415286359
 20
66.75776486781102
 30
0.0
 10
63.62464370142125
 20
66.75776906227908
 30
0.0
 10
63.62412166907771
 20
66.75777214433069
 30
0.0
  0
SPLINE
  5
188
330
1F
100
AcDbEntity
  8
0
  6
Continuous
 62
     7
370
    15
100
AcDbSpline
210
0.0
220
0.0
230
1.0
 70
     8
 71
     3
 72
    18
 73
    14
 74
     0
 42
0.000000001
 43
0.00000001
 40
0.0
 40
0.0
 40
0.0
 40
0.0
 40
0.0010701032087688
 40
0.0014563364057755
 40
0.0116619939289549
 40
0.034324407829869
 40
0.1344979152127146
 40
0.4999991364824546
 40
0.6816068569059796
 40
0.8786837767373211
 40
0.9870185470289908
 40
0.9989299343688849
 40
1.0
 40
1.0
 40
1.0
 40
1.0
 10
63.62412166907771
 20
64.85617160511572
 30
0.0
 10
63.62464369957244
 20
64.85617515961661
 30
0.0
 10
63.62535414694626
 20
64.85617999704634
 30
0.0
 10
63.63104319660017
 20
64.85620849611632
 30
0.0
 10
63.64726575963267
 20
64.85631761367334
 30
0.0
 10
63.71216740794039
 20
64.85667515134908
 30
0.0
 10
63.95038927617404
 20
64.85783272300866
 30
0.0
 10
64.26615826076288
 20
64.85553583592213
 30
0.0
 10
64.62921244649067
 20
64.85689484511381
 30
0.0
 10
64.86678773755146
 20
64.85740153077407
 30
0.0
 10
65.0215864736582
 20
64.85656077239167
 30
0.0
 10
65.08076840820405
 20
64.8562153624425
 30
0.0
 10
65.08710116308798
 20
64.85617493736846
 30
0.0
 10
65.0876231742501
 20
64.85617160511572
 30
0.0
  0
SPLINE
  5
189
330
1F
100
AcDbEntity
  8
0
  6
Continuous
 62
     7
370
    15
100
AcDbSpline
210
0.0
220
0.0
230
1.0
 70
     8
 71
     3
 72
     9
 73
     5
 74
     0
 42
0.000000001
 43
0.00000001
 40
0.0
 40
0.0
 40
0.0
 40
0.0
 40
0.0023489582361002
 40
1.0
 40
1.0
 40
1.0
 40
1.0
 10
65.30667244606589
 20
66.1696854979578
 30
0.0
 10
65.30667145690926
 20
66.17013566164685
 30
0.0
 10
65.30625035251656
 20
66.36177963476379
 30
0.0
 10
65.30413091757731
 20
66.5534233403963
 30
0.0
 10
65.30201646110223
 20
66.74461688296805
 30
0.0
  0
ARC
  5
18A
330
1F
100
AcDbEntity
  8
0
  6
Continuous
 62
     7
370
    15
100
AcDbCircle
 10
65.3007201997
 20
66.3913783753
 30
0.0
 40
0.3532408860816854
100
AcDbArc
 50
88.8183200585
 51
89.7897455261
  0
SPLINE
  5
18B
330
1F
100
AcDbEntity
  8
0
  6
Continuous
 62
     7
370
    15
100
AcDbSpline
210
0.0
220
0.0
230
1.0
 70
     8
 71
     3
 72
    10
 73
     6
 74
     0
 42
0.000000001
 43
0.00000001
 40
0.0
 40
0.0
 40
0.0
 40
0.0
 40
0.416928490772871
 40
0.7964835491191837
 40
1.0
 40
1.0
 40
1.0
 40
1.0
 10
65.30201646110223
 20
66.74461688296805
 30
0.0
 10
65.26978001409853
 20
66.71327645428062
 30
0.0
 10
65.20819679230213
 20
66.65340495011546
 30
0.0
 10
65.1305462250045
 20
66.57824431498999
 30
0.0
 10
65.08517033056391
 20
66.53436529625259
 30
0.0
 10
65.06933223721524
 20
66.51904967540635
 30
0.0
  0
SPLINE
  5
18C
330
1F
100
AcDbEntity
  8
0
  6
Continuous
 62
     7
370
    15
100
AcDbSpline
210
0.0
220
0.0
230
1.0
 70
     8
 71
     3
 72
    14
 73
    10
 74
     0
 42
0.000000001
 43
0.00000001
 40
0.0
 40
0.0
 40
0.0
 40
0.0
 40
0.0018625210860576
 40
0.2839108014286997
 40
0.499998751226183
 40
0.782025371721908
 40
0.9174030350569004
 40
0.9981366702544759
 40
1.0
 40
1.0
 40
1.0
 40
1.0
 10
65.30667244606589
 20
65.44425883814849
 30
0.0
 10
65.30667148554667
 20
65.44470919735893
 30
0.0
 10
65.30652507013873
 20
65.51335907484246
 30
0.0
 10
65.30658807486319
 20
65.63426306162876
 30
0.0
 10
65.30671062075959
 20
65.82291598185944
 30
0.0
 10
65.30657247751414
 20
65.97610271602466
 30
0.0
 10
65.30655642886266
 20
66.09655560226244
 30
0.0
 10
65.3066289103023
 20
66.14926292587307
 30
0.0
 10
65.30667148559702
 20
66.16923494321861
 30
0.0
 10
65.30667244606589
 20
66.1696854979578
 30
0.0
  0
SPLINE
  5
18D
330
1F
100
AcDbEntity
  8
0
  6
Continuous
 62
     7
370
    15
100
AcDbSpline
210
0.0
220
0.0
230
1.0
 70
     8
 71
     3
 72
    14
 73
    10
 74
     0
 42
0.000000001
 43
0.00000001
 40
0.0
 40
0.0
 40
0.0
 40
0.0
 40
0.1326031447699452
 40
0.4884849228080309
 40
0.7973202006755502
 40
0.9576070069805771
 40
0.9880961747432654
 40
0.9976500408454831
 40
1.0
 40
1.0
 40
1.0
 40
1.0
 10
65.30201646110223
 20
64.86932686647835
 30
0.0
 10
65.30224694807916
 20
64.89473984379303
 30
0.0
 10
65.3030960185392
 20
64.98835644906606
 30
0.0
 10
65.30477499208499
 20
65.1411574294507
 30
0.0
 10
65.30614886195771
 20
65.29926251749887
 30
0.0
 10
65.30654789739846
 20
65.39501026343079
 30
0.0
 10
65.30664778083744
 20
65.43340267207782
 30
0.0
 10
65.306666445439
 20
65.44152716514888
 30
0.0
 10
65.30667145676875
 20
65.44380847915698
 30
0.0
 10
65.30667244606589
 20
65.44425883814849
 30
0.0
  0
SPLINE
  5
18E
330
1F
100
AcDbEntity
  8
0
  6
Continuous
 62
     7
370
    15
100
AcDbSpline
210
0.0
220
0.0
230
1.0
 70
     8
 71
     3
 72
    10
 73
     6
 74
     0
 42
0.000000001
 43
0.00000001
 40
0.0
 40
0.0
 40
0.0
 40
0.0
 40
0.2035174613218213
 40
0.5830715095736142
 40
1.0
 40
1.0
 40
1.0
 40
1.0
 10
65.06933223721524
 20
65.09489407404004
 30
0.0
 10
65.08517030588257
 20
65.07957821997981
 30
0.0
 10
65.13054590435266
 20
65.03569875091944
 30
0.0
 10
65.20819700804002
 20
64.96053893305317
 30
0.0
 10
65.26978006139954
 20
64.90066736719373
 30
0.0
 10
65.30201646110223
 20
64.86932686647835
 30
0.0
  0
SPLINE
  5
18F
330
1F
100
AcDbEntity
  8
0
  6
Continuous
 62
     7
370
    15
100
AcDbSpline
210
0.0
220
0.0
230
1.0
 70
     8
 71
     3
 72
    15
 73
    11
 74
     0
 42
0.000000001
 43
0.00000001
 40
0.0
 40
0.0
 40
0.0
 40
0.0
 40
0.1005914477158669
 40
0.2290757646203751
 40
0.3677100613205846
 40
0.5061910065487277
 40
0.6455647848685104
 40
0.7850963711726148
 40
0.9030066080292025
 40
1.0
 40
1.0
 40
1.0
 40
1.0
 10
65.1187452063924
 20
66.44113654879877
 30
0.0
 10
65.14137883239258
 20
66.40295578414435
 30
0.0
 10
65.19292213254236
 20
66.31600716121864
 30
0.0
 10
65.25110419460074
 20
66.16399837619872
 30
0.0
 10
65.29502139797337
 20
65.99035011534238
 30
0.0
 10
65.3114268641459
 20
65.8065747846123
 30
0.0
 10
65.29486757357006
 20
65.62241889742832
 30
0.0
 10
65.25170653391312
 20
65.45253625405043
 30
0.0
 10
65.19591556482361
 20
65.30605925519932
 30
0.0
 10
65.148908031419
 20
65.22372597392217
 30
0.0
 10
65.12769191637257
 20
65.18656613503657
 30
0.0
  0
LINE
  5
190
330
1F
100
AcDbEntity
  8
0
  6
Continuous
 62
     7
370
    15
100
AcDbLine
 10
65.2940327195
 20
64.8575179896
 30
0.0
 11
65.2935174551
 21
64.8608279247
 31
0.0
  0
ARC
  5
191
330
1F
100
AcDbEntity
  8
0
  6
Continuous
 62
     7
370
    15
100
AcDbCircle
 10
65.2931475011
 20
64.8779821961
 30
0.0
 40
0.0171582602447687
100
AcDbArc
 50
271.2354658336
 51
329.9866823032
  0
ARC
  5
192
330
1F
100
AcDbEntity
  8
0
  6
Continuous
 62
     7
370
    15
100
AcDbCircle
 10
65.2936323031
 20
64.8747279582
 30
0.0
 40
0.0172146261451007
100
AcDbArc
 50
271.3328342243
 51
330.1289125956
  0
ARC
  5
193
330
1F
100
AcDbEntity
  8
0
  6
Continuous
 62
     7
370
    15
100
AcDbCircle
 10
63.9880578059
 20
64.8676153462
 30
0.0
 40
1.306013947744253
100
AcDbArc
 50
359.4497662907
 51
359.5570172266
  0
LINE
  5
194
330
1F
100
AcDbEntity
  8
0
  6
Continuous
 62
     7
370
    15
100
AcDbLine
 10
63.4177121335
 20
66.7564251732
 30
0.0
 11
63.4182273676
 21
66.7531152381
 31
0.0
  0
ARC
  5
195
330
1F
100
AcDbEntity
  8
0
  6
Continuous
 62
     7
370
    15
100
AcDbCircle
 10
63.4185947254
 20
66.735964978
 30
0.0
 40
0.0171541940671998
100
AcDbArc
 50
91.2270853364
 51
149.992046653
  0
ARC
  5
196
330
1F
100
AcDbEntity
  8
0
  6
Continuous
 62
     7
370
    15
100
AcDbCircle
 10
63.418111293
 20
66.7392168229
 30
0.0
 40
0.0172129790592304
100
AcDbArc
 50
91.3287764093
 51
150.1297238288
  0
ARC
  5
197
330
1F
100
AcDbEntity
  8
0
  6
Continuous
 62
     7
370
    15
100
AcDbCircle
 10
63.4181125941
 20
64.8747279463
 30
0.0
 40
0.0172146152655624
100
AcDbArc
 50
209.8710624908
 51
268.667017991
  0
ARC
  5
198
330
1F
100
AcDbEntity
  8
0
  6
Continuous
 62
     7
370
    15
100
AcDbCircle
 10
64.6741306916
 20
64.8672255582
 30
0.0
 40
1.256456059703235
100
AcDbArc
 50
180.4426802226
 51
180.5541614457
  0
ARC
  5
199
330
1F
100
AcDbEntity
  8
0
  6
Continuous
 62
     7
370
    15
100
AcDbCircle
 10
63.4185971896
 20
64.8779817625
 30
0.0
 40
0.0171578238819016
100
AcDbArc
 50
210.0124872176
 51
268.7649436269
  0
LINE
  5
19A
330
1F
100
AcDbEntity
  8
0
  6
Continuous
 62
     7
370
    15
100
AcDbLine
 10
63.4182273676
 20
64.8608279247
 30
0.0
 11
63.4177121335
 21
64.8575179896
 31
0.0
  0
ARC
  5
19B
330
1F
100
AcDbEntity
  8
0
  6
Continuous
 62
     7
370
    15
100
AcDbCircle
 10
65.2936336042
 20
66.7392168109
 30
0.0
 40
0.01721299008424
100
AcDbArc
 50
29.8703013476
 51
88.671371107
  0
ARC
  5
19C
330
1F
100
AcDbEntity
  8
0
  6
Continuous
 62
     7
370
    15
100
AcDbCircle
 10
63.9890283494
 20
66.7463392361
 30
0.0
 40
1.305043344902998
100
AcDbArc
 50
0.4428108708
 51
0.5501673281
  0
LINE
  5
19D
330
1F
100
AcDbEntity
  8
0
  6
Continuous
 62
     7
370
    15
100
AcDbLine
 10
65.2935174551
 20
66.7531152381
 30
0.0
 11
65.2940327195
 21
66.7564251732
 31
0.0
  0
ARC
  5
19E
330
1F
100
AcDbEntity
  8
0
  6
Continuous
 62
     7
370
    15
100
AcDbCircle
 10
65.2931499654
 20
66.7359645446
 30
0.0
 40
0.0171546302380673
100
AcDbArc
 50
30.008783783
 51
88.7725052324
  0
ARC
  5
19F
330
1F
100
AcDbEntity
  8
0
  6
Continuous
 62
     7
370
    15
100
AcDbCircle
 10
64.6718302248
 20
66.7467405279
 30
0.0
 40
1.254155484442478
100
AcDbArc
 50
179.4458424823
 51
179.5575550028
  0
ARC
  5
1A0
330
1F
100
AcDbEntity
  8
0
  6
Continuous
 62
     7
370
    15
100
AcDbCircle
 10
65.2752522893
 20
64.8875922344
 30
0.0
 40
0.0324028479680227
100
AcDbArc
 50
304.3113814637
 51
325.688185962
  0
ARC
  5
1A1
330
1F
100
AcDbEntity
  8
0
  6
Continuous
 62
     7
370
    15
100
AcDbCircle
 10
65.3008405008
 20
65.2126620206
 30
0.0
 40
0.3433371680374687
100
AcDbArc
 50
270.1962435171
 51
271.1956908983
  0
ARC
  5
1A2
330
1F
100
AcDbEntity
  8
0
  6
Continuous
 62
     7
370
    15
100
AcDbCircle
 10
63.436489765
 20
66.7263526381
 30
0.0
 40
0.0323998752893215
100
AcDbArc
 50
124.3090420874
 51
145.6870027973
  0
ARC
  5
1A3
330
1F
100
AcDbEntity
  8
0
  6
Continuous
 62
     7
370
    15
100
AcDbCircle
 10
63.4110247983
 20
66.3913749643
 30
0.0
 40
0.3532442974134314
100
AcDbArc
 50
90.2102704683
 51
91.1816772623
  0
ARC
  5
1A4
330
1F
100
AcDbEntity
  8
0
  6
Continuous
 62
     7
370
    15
100
AcDbCircle
 10
63.4109044857
 20
65.212664583
 30
0.0
 40
0.3433397307633829
100
AcDbArc
 50
268.8043109543
 51
269.8037413151
  0
ARC
  5
1A5
330
1F
100
AcDbEntity
  8
0
  6
Continuous
 62
     7
370
    15
100
AcDbCircle
 10
63.4364934887
 20
64.8875929876
 30
0.0
 40
0.0324040086098059
100
AcDbArc
 50
214.3120259108
 51
235.6879740892
  0
SPLINE
  5
1A6
330
1F
100
AcDbEntity
  8
0
  6
Continuous
 62
     7
370
    15
100
AcDbSpline
210
0.0
220
0.0
230
1.0
 70
     8
 71
     3
 72
    12
 73
     8
 74
     0
 42
0.000000001
 43
0.00000001
 40
0.0
 40
0.0
 40
0.0
 40
0.0
 40
0.4884863192761548
 40
0.8444205934159903
 40
0.9688352997915366
 40
0.9976510569679801
 40
1.0
 40
1.0
 40
1.0
 40
1.0
 10
63.40972842576675
 20
66.74461688296805
 30
0.0
 10
63.40877891708218
 20
66.65100082474223
 30
0.0
 10
63.40713755138728
 20
66.4891716714561
 30
0.0
 10
63.40551079635144
 20
66.30350307927371
 30
0.0
 10
63.40515884600009
 20
66.2059244881039
 30
0.0
 10
63.40508702618427
 20
66.17610822608238
 30
0.0
 10
63.4050734247218
 20
66.17013566156331
 30
0.0
 10
63.40507239955356
 20
66.1696854979578
 30
0.0
  0
SPLINE
  5
1A7
330
1F
100
AcDbEntity
  8
0
  6
Continuous
 62
     7
370
    15
100
AcDbSpline
210
0.0
220
0.0
230
1.0
 70
     8
 71
     3
 72
    14
 73
    10
 74
     0
 42
0.000000001
 43
0.00000001
 40
0.0
 40
0.0
 40
0.0
 40
0.0
 40
0.0023499595400481
 40
0.0126833920667859
 40
0.0500581626627088
 40
0.2026798050538793
 40
0.5115150796973879
 40
0.8673968556438177
 40
1.0
 40
1.0
 40
1.0
 40
1.0
 10
63.40507239955356
 20
65.44425883814849
 30
0.0
 10
63.40507342681518
 20
65.44380847918775
 30
0.0
 10
63.40507897123481
 20
65.44137776530847
 30
0.0
 10
63.40510064437006
 20
65.43178425121164
 30
0.0
 10
63.40520373904784
 20
65.39339190738691
 30
0.0
 10
63.40560848701781
 20
65.29779352860321
 30
0.0
 10
63.40696994076007
 20
65.14115743901321
 30
0.0
 10
63.40864880476963
 20
64.9883564480067
 30
0.0
 10
63.40949792521928
 20
64.894739843607
 30
0.0
 10
63.40972842576675
 20
64.86932686647835
 30
0.0
  0
ARC
  5
1A8
330
1F
100
AcDbEntity
  8
0
  6
Continuous
 62
     7
370
    15
100
AcDbCircle
 10
65.2752560114
 20
66.7263533899
 30
0.0
 40
0.0323987166967106
100
AcDbArc
 50
34.3127859204
 51
55.6916017692
  0
SPLINE
  5
1A9
330
1F
100
AcDbEntity
  8
0
  6
Continuous
 62
     7
370
    15
100
AcDbSpline
210
0.0
220
0.0
230
1.0
 70
     8
 71
     3
 72
    11
 73
     7
 74
     0
 42
0.000000001
 43
0.00000001
 40
0.0
 40
0.0
 40
0.0
 40
0.0
 40
0.4693398048598934
 40
0.7571075639806817
 40
0.9924130171234159
 40
1.0
 40
1.0
 40
1.0
 40
1.0
 10
65.294032719529
 20
66.75642517322434
 30
0.0
 10
65.26174038608458
 20
66.75663058120703
 30
0.0
 10
65.20964855484374
 20
66.75696193161838
 30
0.0
 10
65.14136764345359
 20
66.75742749309784
 30
0.0
 10
65.1048566725849
 20
66.75765584648614
 30
0.0
 10
65.08814520980616
 20
66.75776862168695
 30
0.0
 10
65.08762321091635
 20
66.75777214433069
 30
0.0
  0
SPLINE
  5
1AA
330
1F
100
AcDbEntity
  8
0
  6
Continuous
 62
     7
370
    15
100
AcDbSpline
210
0.0
220
0.0
230
1.0
 70
     8
 71
     3
 72
    10
 73
     6
 74
     0
 42
0.000000001
 43
0.00000001
 40
0.0
 40
0.0
 40
0.0
 40
0.0
 40
0.2035166001399875
 40
0.583071408704229
 40
1.0
 40
1.0
 40
1.0
 40
1.0
 10
65.0679503965117
 20
66.52043184610606
 30
0.0
 10
65.08326608004145
 20
66.53626984304778
 30
0.0
 10
65.1271452386202
 20
66.5816454201826
 30
0.0
 10
65.20230528602782
 20
66.65929617338305
 30
0.0
 10
65.26217693644344
 20
66.72087898961045
 30
0.0
 10
65.2935174551168
 20
66.75311523812766
 30
0.0
  0
SPLINE
  5
1AB
330
1F
100
AcDbEntity
  8
0
  6
Continuous
 62
     7
370
    15
100
AcDbSpline
210
0.0
220
0.0
230
1.0
 70
     8
 71
     3
 72
    15
 73
    11
 74
     0
 42
0.000000001
 43
0.00000001
 40
0.0
 40
0.0
 40
0.0
 40
0.0
 40
0.1005911236147185
 40
0.229075567048506
 40
0.3677101913522819
 40
0.5061905947624098
 40
0.645564521470044
 40
0.7850963920752649
 40
0.9030067852634324
 40
1.0
 40
1.0
 40
1.0
 40
1.0
 10
63.72170755509056
 20
66.56984503528068
 30
0.0
 10
63.75988836311987
 20
66.59247827043328
 30
0.0
 10
63.84683728997729
 20
66.64402080212406
 30
0.0
 10
63.99884572318658
 20
66.70220363939451
 30
0.0
 10
64.17249399915687
 20
66.74612089777257
 30
0.0
 10
64.35626922762975
 20
66.76252578566739
 30
0.0
 10
64.54042517087612
 20
66.74596783514154
 30
0.0
 10
64.71030787750765
 20
66.70280589621788
 30
0.0
 10
64.85678500624707
 20
66.64701512056104
 30
0.0
 10
64.93911829905072
 20
66.60000764901791
 30
0.0
 10
64.97627807885148
 20
66.57879159859588
 30
0.0
  0
SPLINE
  5
1AC
330
1F
100
AcDbEntity
  8
0
  6
Continuous
 62
     7
370
    15
100
AcDbSpline
210
0.0
220
0.0
230
1.0
 70
     8
 71
     3
 72
    10
 73
     6
 74
     0
 42
0.000000001
 43
0.00000001
 40
0.0
 40
0.0
 40
0.0
 40
0.0
 40
0.4169286725514873
 40
0.7964836216938298
 40
1.0
 40
1.0
 40
1.0
 40
1.0
 10
63.41822736758625
 20
66.75311523812766
 30
0.0
 10
63.44956789319146
 20
66.7208789836211
 30
0.0
 10
63.50943956185618
 20
66.659296150802
 30
0.0
 10
63.58459973646149
 20
66.58164548067106
 30
0.0
 10
63.62847879457843
 20
66.53626984753741
 30
0.0
 10
63.64379442848298
 20
66.52043184610606
 30
0.0
  0
SPLINE
  5
1AD
330
1F
100
AcDbEntity
  8
0
  6
Continuous
 62
     7
370
    15
100
AcDbSpline
210
0.0
220
0.0
230
1.0
 70
     8
 71
     3
 72
     9
 73
     5
 74
     0
 42
0.000000001
 43
0.00000001
 40
0.0
 40
0.0
 40
0.0
 40
0.0
 40
0.0075867206111227
 40
1.0
 40
1.0
 40
1.0
 40
1.0
 10
63.62412166907771
 20
66.75777214433069
 30
0.0
 10
63.62359968847868
 20
66.75776862393714
 30
0.0
 10
63.55479781402136
 20
66.75730460348386
 30
0.0
 10
63.48599397603192
 20
66.75686321400477
 30
0.0
 10
63.41771213353828
 20
66.75642517322434
 30
0.0
  0
SPLINE
  5
1AE
330
1F
100
AcDbEntity
  8
0
  6
Continuous
 62
     7
370
    15
100
AcDbSpline
210
0.0
220
0.0
230
1.0
 70
     8
 71
     3
 72
    15
 73
    11
 74
     0
 42
0.000000001
 43
0.00000001
 40
0.0
 40
0.0
 40
0.0
 40
0.0
 40
0.1005915234823499
 40
0.2290758014506222
 40
0.3677103692629068
 40
0.506190743133869
 40
0.6455646783355877
 40
0.7850964393238026
 40
0.9030067815578752
 40
1.0
 40
1.0
 40
1.0
 40
1.0
 10
64.9900373249035
 20
65.04409930082561
 30
0.0
 10
64.95185658246359
 20
65.0214655569846
 30
0.0
 10
64.8649080616378
 20
64.96992201901327
 30
0.0
 10
64.7128989502221
 20
64.91174038935777
 30
0.0
 10
64.53925093483122
 20
64.86782283429011
 30
0.0
 10
64.35547561103701
 20
64.8514177189126
 30
0.0
 10
64.17131985325992
 20
64.8679769135881
 30
0.0
 10
64.0014369111258
 20
64.91113763552744
 30
0.0
 10
63.85495988501775
 20
64.96692868735911
 30
0.0
 10
63.77262657842383
 20
65.01393611484012
 30
0.0
 10
63.73546678280945
 20
65.03515215085051
 30
0.0
  0
SPLINE
  5
1AF
330
1F
100
AcDbEntity
  8
0
  6
Continuous
 62
     7
370
    15
100
AcDbSpline
210
0.0
220
0.0
230
1.0
 70
     8
 71
     3
 72
    10
 73
     6
 74
     0
 42
0.000000001
 43
0.00000001
 40
0.0
 40
0.0
 40
0.0
 40
0.0
 40
0.4169291972533399
 40
0.7964836113648511
 40
1.0
 40
1.0
 40
1.0
 40
1.0
 10
65.2935174551168
 20
64.86082792465885
 30
0.0
 10
65.2621769586059
 20
64.8930644013122
 30
0.0
 10
65.20230542164612
 20
64.95464758021093
 30
0.0
 10
65.12714523197616
 20
65.03229831946129
 30
0.0
 10
65.08326607832241
 20
65.07767390386238
 30
0.0
 10
65.0679503965117
 20
65.09351190334034
 30
0.0
  0
SPLINE
  5
1B0
330
1F
100
AcDbEntity
  8
0
  6
Continuous
 62
     7
370
    15
100
AcDbSpline
210
0.0
220
0.0
230
1.0
 70
     8
 71
     3
 72
     9
 73
     5
 74
     0
 42
0.000000001
 43
0.00000001
 40
0.0
 40
0.0
 40
0.0
 40
0.0
 40
0.0075871458222677
 40
1.0
 40
1.0
 40
1.0
 40
1.0
 10
65.0876231742501
 20
64.85617160511572
 30
0.0
 10
65.08814518540922
 20
64.85617492921341
 30
0.0
 10
65.15694723183492
 20
64.85661305150182
 30
0.0
 10
65.22575098774658
 20
64.85706724354262
 30
0.0
 10
65.294032719529
 20
64.85751798956217
 30
0.0
  0
SPLINE
  5
1B1
330
1F
100
AcDbEntity
  8
0
  6
Continuous
 62
     7
370
    15
100
AcDbSpline
210
0.0
220
0.0
230
1.0
 70
     8
 71
     3
 72
    11
 73
     7
 74
     0
 42
0.000000001
 43
0.00000001
 40
0.0
 40
0.0
 40
0.0
 40
0.0
 40
0.4693397498030801
 40
0.7571073247434802
 40
0.9924133030362583
 40
0.9999999999999999
 40
0.9999999999999999
 40
0.9999999999999999
 40
0.9999999999999999
 10
63.41771213353828
 20
64.85751798956217
 30
0.0
 10
63.45000446159705
 20
64.85731179016082
 30
0.0
 10
63.50209627380041
 20
64.85697916315196
 30
0.0
 10
63.57037725464081
 20
64.85652002651297
 30
0.0
 10
63.60688816565707
 20
64.85628133176664
 30
0.0
 10
63.62359968849736
 20
64.85617492859438
 30
0.0
 10
63.62412166907771
 20
64.85617160511572
 30
0.0
  0
SPLINE
  5
1B2
330
1F
100
AcDbEntity
  8
0
  6
Continuous
 62
     7
370
    15
100
AcDbSpline
210
0.0
220
0.0
230
1.0
 70
     8
 71
     3
 72
    10
 73
     6
 74
     0
 42
0.000000001
 43
0.00000001
 40
0.0
 40
0.0
 40
0.0
 40
0.0
 40
0.2035161668016048
 40
0.5830707214911508
 40
1.0
 40
1.0
 40
1.0
 40
1.0
 10
63.64379442848298
 20
65.09351190334034
 30
0.0
 10
63.62847879629746
 20
65.07767389937275
 30
0.0
 10
63.58459974310554
 20
65.03229825897283
 30
0.0
 10
63.50943942623778
 20
64.95464760279211
 30
0.0
 10
63.44956787102896
 20
64.8930644073016
 30
0.0
 10
63.41822736758625
 20
64.86082792465885
 30
0.0
  0
SPLINE
  5
1B3
330
1F
100
AcDbEntity
  8
0
  6
Continuous
 62
     7
370
    15
100
AcDbSpline
210
0.0
220
0.0
230
1.0
 70
     8
 71
     3
 72
    14
 73
    10
 74
     0
 42
0.000000001
 43
0.00000001
 40
0.0
 40
0.0
 40
0.0
 40
0.0
 40
0.0018633299215673
 40
0.0825969649442772
 40
0.2179746282508073
 40
0.5000012486822997
 40
0.7160891984641169
 40
0.9981374787378223
 40
1.0
 40
1.0
 40
1.0
 40
1.0
 10
63.40507239955356
 20
66.1696854979578
 30
0.0
 10
63.40507338014014
 20
66.16923494321915
 30
0.0
 10
63.40511684720112
 20
66.14926292778448
 30
0.0
 10
63.40518768660188
 20
66.09655560071964
 30
0.0
 10
63.40517280545754
 20
65.97610271720491
 30
0.0
 10
63.40503439909036
 20
65.82291598083401
 30
0.0
 10
63.40515582512781
 20
65.63426306397837
 30
0.0
 10
63.40522283448776
 20
65.51335906835155
 30
0.0
 10
63.4050733800099
 20
65.44470919735876
 30
0.0
 10
63.40507239955356
 20
65.44425883814849
 30
0.0
  0
SPLINE
  5
1B4
330
1F
100
AcDbEntity
  8
0
  6
Continuous
 62
     7
370
    15
100
AcDbSpline
210
0.0
220
0.0
230
1.0
 70
     8
 71
     3
 72
    10
 73
     6
 74
     0
 42
0.000000001
 43
0.00000001
 40
0.0
 40
0.0
 40
0.0
 40
0.0
 40
0.4169284424808758
 40
0.7964824581721058
 40
1.0
 40
1.0
 40
1.0
 40
1.0
 10
63.40972842576675
 20
64.86932686647835
 30
0.0
 10
63.44196482482167
 20
64.90066736605847
 30
0.0
 10
63.503547877801
 20
64.96053893058254
 30
0.0
 10
63.58119896627229
 20
65.03569876997423
 30
0.0
 10
63.6265746087778
 20
65.0795782213525
 30
0.0
 10
63.64241269777818
 20
65.09489407404004
 30
0.0
  0
SPLINE
  5
1B5
330
1F
100
AcDbEntity
  8
0
  6
Continuous
 62
     7
370
    15
100
AcDbSpline
210
0.0
220
0.0
230
1.0
 70
     8
 71
     3
 72
    10
 73
     6
 74
     0
 42
0.000000001
 43
0.00000001
 40
0.0
 40
0.0
 40
0.0
 40
0.0
 40
0.2035165313873634
 40
0.583071557172842
 40
1.0
 40
1.0
 40
1.0
 40
1.0
 10
63.64241269777818
 20
66.51904967540635
 30
0.0
 10
63.62657458409646
 20
66.53436529487988
 30
0.0
 10
63.58119864562045
 20
66.57824429593506
 30
0.0
 10
63.50354809353885
 20
66.65340495258609
 30
0.0
 10
63.4419648721227
 20
66.7132764554159
 30
0.0
 10
63.40972842576675
 20
66.74461688296805
 30
0.0
  0
SPLINE
  5
1B6
330
1F
100
AcDbEntity
  8
0
  6
Continuous
 62
     7
370
    15
100
AcDbSpline
210
0.0
220
0.0
230
1.0
 70
     8
 71
     3
 72
    15
 73
    11
 74
     0
 42
0.000000001
 43
0.00000001
 40
0.0
 40
0.0
 40
0.0
 40
0.0
 40
0.1005910807346447
 40
0.2290758790471693
 40
0.3677102075588955
 40
0.5061903248556217
 40
0.6455650443109362
 40
0.7850966731253456
 40
0.9030073726657005
 40
1.0
 40
1.0
 40
1.0
 40
1.0
 10
63.59299965526854
 20
65.17280720064763
 30
0.0
 10
63.57036602766382
 20
65.21098776063369
 30
0.0
 10
63.51882251007049
 20
65.29793627811098
 30
0.0
 10
63.46064073020674
 20
65.44994520922313
 30
0.0
 10
63.41672368201596
 20
65.62359326871203
 30
0.0
 10
63.40031793552333
 20
65.80736856081569
 30
0.0
 10
63.41687728731848
 20
65.99152448066685
 30
0.0
 10
63.4600385279347
 20
66.16140761756749
 30
0.0
 10
63.51582893368123
 20
66.30788469239793
 30
0.0
 10
63.56283681201134
 20
66.3902175987939
 30
0.0
 10
63.58405294528836
 20
66.42737702774993
 30
0.0
  0
ARC
  5
1B7
330
1F
100
AcDbEntity
  8
0
  6
Continuous
 62
     7
370
    15
100
AcDbCircle
 10
65.0447895257
 20
65.1180490852
 30
0.0
 40
0.0337416542064132
100
AcDbArc
 50
313.3472084273
 51
316.6664726941
  0
ARC
  5
1B8
330
1F
100
AcDbEntity
  8
0
  6
Continuous
 62
     7
370
    15
100
AcDbCircle
 10
63.6672355826
 20
66.4956164233
 30
0.0
 40
0.034136386972816
100
AcDbArc
 50
133.3687505402
 51
136.6494916817
  0
ARC
  5
1B9
330
1F
100
AcDbEntity
  8
0
  6
Continuous
 62
     7
370
    15
100
AcDbCircle
 10
63.6669919385
 20
65.1180837595
 30
0.0
 40
0.033792019554067
100
AcDbArc
 50
223.3337870055
 51
226.6479707732
  0
ARC
  5
1BA
330
1F
100
AcDbEntity
  8
0
  6
Continuous
 62
     7
370
    15
100
AcDbCircle
 10
65.0445463178
 20
66.4956515144
 30
0.0
 40
0.0340854183279219
100
AcDbArc
 50
43.3502699252
 51
46.636048953
  0
CIRCLE
  5
1BB
330
1F
100
AcDbEntity
  8
0
  6
Continuous
 62
     7
370
    15
100
AcDbCircle
 10
64.290057279
 20
45.8026517433
 30
0.0
 40
6.12497699057863
  0
CIRCLE
  5
1BC
330
1F
100
AcDbEntity
  8
0
  6
Continuous
 62
     7
370
    15
100
AcDbCircle
 10
64.2903724458
 20
45.803471794
 30
0.0
 40
2.904147476328935
  0
CIRCLE
  5
1BD
330
1F
100
AcDbEntity
  8
0
  6
Continuous
 62
     7
370
    15
100
AcDbCircle
 10
64.2903724458
 20
45.803471794
 30
0.0
 40
6.236134330288552
  0
CIRCLE
  5
1BE
330
1F
100
AcDbEntity
  8
0
  6
Continuous
 62
     7
370
    15
100
AcDbCircle
 10
64.2903724458
 20
45.803471794
 30
0.0
 40
6.274249598396572
  0
CIRCLE
  5
1BF
330
1F
100
AcDbEntity
  8
0
  6
Continuous
 62
     7
370
    15
100
AcDbCircle
 10
64.2903724458
 20
45.803471794
 30
0.0
 40
7.687000000000007
  0
CIRCLE
  5
1C0
330
1F
100
AcDbEntity
  8
0
  6
Continuous
 62
     7
370
    15
100
AcDbCircle
 10
64.2903724458
 20
45.803471794
 30
0.0
 40
7.051525994332093
  0
CIRCLE
  5
1C1
330
1F
100
AcDbEntity
  8
0
  6
Continuous
 62
     7
370
    15
100
AcDbCircle
 10
64.2903724458
 20
45.803471794
 30
0.0
 40
6.254052704421371
  0
LINE
  5
1C2
330
1F
100
AcDbEntity
  8
0
  6
Continuous
 62
     7
370
    15
100
AcDbLine
 10
55.1690735958
 20
37.7764720588
 30
0.0
 11
55.1713357564
 21
37.7764720588
 31
0.0
  0
LINE
  5
1C3
330
1F
100
AcDbEntity
  8
0
  6
Continuous
 62
     7
370
    15
100
AcDbLine
 10
55.1690735958
 20
75.216471442
 30
0.0
 11
55.1690735958
 21
37.7764720588
 31
0.0
  0
LINE
  5
1C4
330
1F
100
AcDbEntity
  8
0
  6
Continuous
 62
     7
370
    15
100
AcDbLine
 10
55.1713357564
 20
75.216471442
 30
0.0
 11
55.1690735958
 21
75.216471442
 31
0.0
  0
LINE
  5
1C5
330
1F
100
AcDbEntity
  8
0
  6
Continuous
 62
     7
370
    15
100
AcDbLine
 10
55.4798126728
 20
75.216471442
 30
0.0
 11
55.4798126728
 21
37.7764720588
 31
0.0
  0
LINE
  5
1C6
330
1F
100
AcDbEntity
  8
0
  6
Continuous
 62
     7
370
    15
100
AcDbLine
 10
55.1690735958
 20
37.7764720588
 30
0.0
 11
54.4946411736
 21
37.7764720588
 31
0.0
  0
LINE
  5
1C7
330
1F
100
AcDbEntity
  8
0
  6
Continuous
 62
     7
370
    15
100
AcDbLine
 10
54.4946411736
 20
75.216471442
 30
0.0
 11
54.4946411736
 21
37.7764720588
 31
0.0
  0
LINE
  5
1C8
330
1F
100
AcDbEntity
  8
0
  6
Continuous
 62
     7
370
    15
100
AcDbLine
 10
55.1690735958
 20
75.216471442
 30
0.0
 11
54.4946411736
 21
75.216471442
 31
0.0
  0
LINE
  5
1C9
330
1F
100
AcDbEntity
  8
0
  6
Continuous
 62
     7
370
    15
100
AcDbLine
 10
61.391888856
 20
55.4234408195
 30
0.0
 11
61.391888856
 21
54.0695027603
 31
0.0
  0
LINE
  5
1CA
330
1F
100
AcDbEntity
  8
0
  6
Continuous
 62
     7
370
    15
100
AcDbLine
 10
73.4119867988
 20
37.7764720588
 30
0.0
 11
74.0864186344
 21
37.7764720588
 31
0.0
  0
LINE
  5
1CB
330
1F
100
AcDbEntity
  8
0
  6
Continuous
 62
     7
370
    15
100
AcDbLine
 10
73.4119867988
 20
37.7764720588
 30
0.0
 11
73.4119867988
 21
75.216471442
 31
0.0
  0
LINE
  5
1CC
330
1F
100
AcDbEntity
  8
0
  6
Continuous
 62
     7
370
    15
100
AcDbLine
 10
73.4119867988
 20
75.216471442
 30
0.0
 11
74.0864186344
 21
75.216471442
 31
0.0
  0
LINE
  5
1CD
330
1F
100
AcDbEntity
  8
0
  6
Continuous
 62
     7
370
    15
100
AcDbLine
 10
74.0864186344
 20
37.7764720588
 30
0.0
 11
74.0864186344
 21
75.216471442
 31
0.0
  0
LINE
  5
1CE
330
1F
100
AcDbEntity
  8
0
  6
Continuous
 62
     7
370
    15
100
AcDbLine
 10
73.4119867988
 20
75.216471442
 30
0.0
 11
73.4094096019
 21
75.216471442
 31
0.0
  0
LINE
  5
1CF
330
1F
100
AcDbEntity
  8
0
  6
Continuous
 62
     7
370
    15
100
AcDbLine
 10
73.1012477218
 20
37.7764720588
 30
0.0
 11
73.1012477218
 21
75.216471442
 31
0.0
  0
LINE
  5
1D0
330
1F
100
AcDbEntity
  8
0
  6
Continuous
 62
     7
370
    15
100
AcDbLine
 10
73.4094096019
 20
37.7764720588
 30
0.0
 11
73.4119867988
 21
37.7764720588
 31
0.0
  0
LINE
  5
1D1
330
1F
100
AcDbEntity
  8
0
  6
Continuous
 62
     7
370
    15
100
AcDbLine
 10
67.1891712453
 20
54.0686566501
 30
0.0
 11
67.1891712453
 21
55.4242870031
 31
0.0
  0
CIRCLE
  5
1D2
330
1F
100
AcDbEntity
  8
0
  6
Continuous
 62
     7
370
    15
100
AcDbCircle
 10
64.2903724458
 20
45.803471794
 30
0.0
 40
7.6875
  0
ARC
  5
1D3
330
1F
100
AcDbEntity
  8
0
  6
Continuous
 62
     7
370
    15
100
AcDbCircle
 10
68.6158724458
 20
58.484971794
 30
0.0
 40
0.2500000000000071
100
AcDbArc
 50
270.0
 51
0.0
  0
LINE
  5
1D4
330
1F
100
AcDbEntity
  8
0
  6
Continuous
 62
     7
370
    15
100
AcDbLine
 10
68.8658724893
 20
58.4849718724
 30
0.0
 11
68.8658724893
 21
73.1349716477
 31
0.0
  0
ARC
  5
1D5
330
1F
100
AcDbEntity
  8
0
  6
Continuous
 62
     7
370
    15
100
AcDbCircle
 10
68.6158724458
 20
73.134971794
 30
0.0
 40
0.25
100
AcDbArc
 50
360.0
 51
90.0
  0
LINE
  5
1D6
330
1F
100
AcDbEntity
  8
0
  6
Continuous
 62
     7
370
    15
100
AcDbLine
 10
68.6158723639
 20
73.3849720664
 30
0.0
 11
59.9658723695
 21
73.3849720664
 31
0.0
  0
ARC
  5
1D7
330
1F
100
AcDbEntity
  8
0
  6
Continuous
 62
     7
370
    15
100
AcDbCircle
 10
59.9658724458
 20
73.134971794
 30
0.0
 40
0.25
100
AcDbArc
 50
90.0
 51
180.0
  0
LINE
  5
1D8
330
1F
100
AcDbEntity
  8
0
  6
Continuous
 62
     7
370
    15
100
AcDbLine
 10
59.7158725375
 20
73.1349716477
 30
0.0
 11
59.7158725375
 21
58.4849718724
 31
0.0
  0
ARC
  5
1D9
330
1F
100
AcDbEntity
  8
0
  6
Continuous
 62
     7
370
    15
100
AcDbCircle
 10
59.9658724458
 20
58.484971794
 30
0.0
 40
0.25
100
AcDbArc
 50
180.0
 51
270.0
  0
LINE
  5
1DA
330
1F
100
AcDbEntity
  8
0
  6
Continuous
 62
     7
370
    15
100
AcDbLine
 10
59.9658723695
 20
58.2349717471
 30
0.0
 11
68.6158723639
 21
58.2349717471
 31
0.0
  0
ARC
  5
1DB
330
1F
100
AcDbEntity
  8
0
  6
Continuous
 62
     7
370
    15
100
AcDbCircle
 10
66.7298724458
 20
58.649971794
 30
0.0
 40
0.125000000000009
100
AcDbArc
 50
300.4926188645
 51
59.9621071575
  0
ARC
  5
1DC
330
1F
100
AcDbEntity
  8
0
  6
Continuous
 62
     7
370
    15
100
AcDbCircle
 10
68.3858724458
 20
65.806971794
 30
0.0
 40
0.1250000000000074
100
AcDbArc
 50
301.3322514834
 51
58.6677485173
  0
ARC
  5
1DD
330
1F
100
AcDbEntity
  8
0
  6
Continuous
 62
     7
370
    15
100
AcDbCircle
 10
61.8518724458
 20
72.969971794
 30
0.0
 40
0.1250000000000012
100
AcDbArc
 50
213.3569175518
 51
29.8580845204
  0
ARC
  5
1DE
330
1F
100
AcDbEntity
  8
0
  6
Continuous
 62
     7
370
    15
100
AcDbCircle
 10
60.1958724458
 20
65.806971794
 30
0.0
 40
0.1250000000000071
100
AcDbArc
 50
0.0
 51
90.0
  0
ARC
  5
1DF
330
1F
100
AcDbEntity
  8
0
  6
Continuous
 62
     7
370
    15
100
AcDbCircle
 10
60.1958724458
 20
65.806971794
 30
0.0
 40
0.1250000000000071
100
AcDbArc
 50
270.0
 51
0.0
  0
ARC
  5
1E0
330
1F
100
AcDbEntity
  8
0
  6
Continuous
 62
     7
370
    15
100
AcDbCircle
 10
66.7298724458
 20
72.969971794
 30
0.0
 40
0.1250000000000004
100
AcDbArc
 50
0.0
 51
56.737421901
  0
ARC
  5
1E1
330
1F
100
AcDbEntity
  8
0
  6
Continuous
 62
     7
370
    15
100
AcDbCircle
 10
66.7298724458
 20
72.969971794
 30
0.0
 40
0.1250000000000113
100
AcDbArc
 50
297.356344392
 51
0.0
  0
ARC
  5
1E2
330
1F
100
AcDbEntity
  8
0
  6
Continuous
 62
     7
370
    15
100
AcDbCircle
 10
68.3858724458
 20
70.306971794
 30
0.0
 40
0.125000000000011
100
AcDbArc
 50
301.3322514977
 51
58.6677485023
  0
ARC
  5
1E3
330
1F
100
AcDbEntity
  8
0
  6
Continuous
 62
     7
370
    15
100
AcDbCircle
 10
68.3858724458
 20
61.306971794
 30
0.0
 40
0.1249999999999999
100
AcDbArc
 50
301.3322515011
 51
58.6677484986
  0
ARC
  5
1E4
330
1F
100
AcDbEntity
  8
0
  6
Continuous
 62
     7
370
    15
100
AcDbCircle
 10
61.8518724458
 20
58.649971794
 30
0.0
 40
0.1249999999999997
100
AcDbArc
 50
0.0
 51
96.2010398263
  0
ARC
  5
1E5
330
1F
100
AcDbEntity
  8
0
  6
Continuous
 62
     7
370
    15
100
AcDbCircle
 10
61.8518724458
 20
58.649971794
 30
0.0
 40
0.1249999999999929
100
AcDbArc
 50
278.0489814499
 51
0.0
  0
ARC
  5
1E6
330
1F
100
AcDbEntity
  8
0
  6
Continuous
 62
     7
370
    15
100
AcDbCircle
 10
60.1958724458
 20
61.306971794
 30
0.0
 40
0.1250000000000071
100
AcDbArc
 50
0.0
 51
90.0
  0
ARC
  5
1E7
330
1F
100
AcDbEntity
  8
0
  6
Continuous
 62
     7
370
    15
100
AcDbCircle
 10
60.1958724458
 20
61.306971794
 30
0.0
 40
0.1250000000000071
100
AcDbArc
 50
270.0
 51
0.0
  0
ARC
  5
1E8
330
1F
100
AcDbEntity
  8
0
  6
Continuous
 62
     7
370
    15
100
AcDbCircle
 10
60.1958724458
 20
70.306971794
 30
0.0
 40
0.1250000000000071
100
AcDbArc
 50
0.0
 51
90.0
  0
ARC
  5
1E9
330
1F
100
AcDbEntity
  8
0
  6
Continuous
 62
     7
370
    15
100
AcDbCircle
 10
60.1958724458
 20
70.306971794
 30
0.0
 40
0.1250000000000142
100
AcDbArc
 50
270.0
 51
0.0
  0
LINE
  5
1EA
330
1F
100
AcDbEntity
  8
0
  6
Continuous
 62
     7
370
    15
100
AcDbLine
 10
54.4413724556
 20
75.946472289
 30
0.0
 11
54.4413724556
 21
75.216471442
 31
0.0
  0
LINE
  5
1EB
330
1F
100
AcDbEntity
  8
0
  6
Continuous
 62
     7
370
    15
100
AcDbLine
 10
55.1758565575
 20
75.946472289
 30
0.0
 11
54.4413724556
 21
75.946472289
 31
0.0
  0
LINE
  5
1EC
330
1F
100
AcDbEntity
  8
0
  6
Continuous
 62
     7
370
    15
100
AcDbLine
 10
55.1758565575
 20
75.946472289
 30
0.0
 11
55.1758565575
 21
75.216471442
 31
0.0
  0
LINE
  5
1ED
330
1F
100
AcDbEntity
  8
0
  6
Continuous
 62
     7
370
    15
100
AcDbLine
 10
55.1758565575
 20
75.216471442
 30
0.0
 11
55.1713357564
 21
75.216471442
 31
0.0
  0
LINE
  5
1EE
330
1F
100
AcDbEntity
  8
0
  6
Continuous
 62
     7
370
    15
100
AcDbLine
 10
54.4946411736
 20
75.216471442
 30
0.0
 11
54.4413724556
 21
75.216471442
 31
0.0
  0
LINE
  5
1EF
330
1F
100
AcDbEntity
  8
0
  6
Continuous
 62
     7
370
    15
100
AcDbLine
 10
73.4048882142
 20
75.946472289
 30
0.0
 11
55.1758565575
 21
75.946472289
 31
0.0
  0
LINE
  5
1F0
330
1F
100
AcDbEntity
  8
0
  6
Continuous
 62
     7
370
    15
100
AcDbLine
 10
73.4048882142
 20
75.946472289
 30
0.0
 11
73.4048882142
 21
75.216471442
 31
0.0
  0
LINE
  5
1F1
330
1F
100
AcDbEntity
  8
0
  6
Continuous
 62
     7
370
    15
100
AcDbLine
 10
73.4048882142
 20
75.216471442
 30
0.0
 11
55.1758565575
 21
75.216471442
 31
0.0
  0
LINE
  5
1F2
330
1F
100
AcDbEntity
  8
0
  6
Continuous
 62
     7
370
    15
100
AcDbLine
 10
74.139372316
 20
75.946472289
 30
0.0
 11
74.139372316
 21
75.216471442
 31
0.0
  0
LINE
  5
1F3
330
1F
100
AcDbEntity
  8
0
  6
Continuous
 62
     7
370
    15
100
AcDbLine
 10
74.139372316
 20
75.946472289
 30
0.0
 11
73.4048882142
 21
75.946472289
 31
0.0
  0
LINE
  5
1F4
330
1F
100
AcDbEntity
  8
0
  6
Continuous
 62
     7
370
    15
100
AcDbLine
 10
74.139372316
 20
75.216471442
 30
0.0
 11
74.0864186344
 21
75.216471442
 31
0.0
  0
LINE
  5
1F5
330
1F
100
AcDbEntity
  8
0
  6
Continuous
 62
     7
370
    15
100
AcDbLine
 10
73.4094096019
 20
75.216471442
 30
0.0
 11
73.4048882142
 21
75.216471442
 31
0.0
  0
LINE
  5
1F6
330
1F
100
AcDbEntity
  8
0
  6
Continuous
 62
     7
370
    15
100
AcDbLine
 10
74.139372316
 20
37.0464712118
 30
0.0
 11
74.139372316
 21
37.7764720588
 31
0.0
  0
LINE
  5
1F7
330
1F
100
AcDbEntity
  8
0
  6
Continuous
 62
     7
370
    15
100
AcDbLine
 10
73.4048882142
 20
37.0464712118
 30
0.0
 11
74.139372316
 21
37.0464712118
 31
0.0
  0
LINE
  5
1F8
330
1F
100
AcDbEntity
  8
0
  6
Continuous
 62
     7
370
    15
100
AcDbLine
 10
73.4048882142
 20
37.0464712118
 30
0.0
 11
73.4048882142
 21
37.7764720588
 31
0.0
  0
LINE
  5
1F9
330
1F
100
AcDbEntity
  8
0
  6
Continuous
 62
     7
370
    15
100
AcDbLine
 10
73.4048882142
 20
37.7764720588
 30
0.0
 11
73.4094096019
 21
37.7764720588
 31
0.0
  0
LINE
  5
1FA
330
1F
100
AcDbEntity
  8
0
  6
Continuous
 62
     7
370
    15
100
AcDbLine
 10
74.0864186344
 20
37.7764720588
 30
0.0
 11
74.139372316
 21
37.7764720588
 31
0.0
  0
LINE
  5
1FB
330
1F
100
AcDbEntity
  8
0
  6
Continuous
 62
     7
370
    15
100
AcDbLine
 10
55.1758565575
 20
37.0464712118
 30
0.0
 11
55.1758565575
 21
37.7764720588
 31
0.0
  0
LINE
  5
1FC
330
1F
100
AcDbEntity
  8
0
  6
Continuous
 62
     7
370
    15
100
AcDbLine
 10
55.1758565575
 20
37.7764720588
 30
0.0
 11
73.4048882142
 21
37.7764720588
 31
0.0
  0
LINE
  5
1FD
330
1F
100
AcDbEntity
  8
0
  6
Continuous
 62
     7
370
    15
100
AcDbLine
 10
55.1758565575
 20
37.0464712118
 30
0.0
 11
73.4048882142
 21
37.0464712118
 31
0.0
  0
LINE
  5
1FE
330
1F
100
AcDbEntity
  8
0
  6
Continuous
 62
     7
370
    15
100
AcDbLine
 10
54.4413724556
 20
37.0464712118
 30
0.0
 11
54.4413724556
 21
37.7764720588
 31
0.0
  0
LINE
  5
1FF
330
1F
100
AcDbEntity
  8
0
  6
Continuous
 62
     7
370
    15
100
AcDbLine
 10
54.4413724556
 20
37.7764720588
 30
0.0
 11
54.4946411736
 21
37.7764720588
 31
0.0
  0
LINE
  5
200
330
1F
100
AcDbEntity
  8
0
  6
Continuous
 62
     7
370
    15
100
AcDbLine
 10
55.1713357564
 20
37.7764720588
 30
0.0
 11
55.1758565575
 21
37.7764720588
 31
0.0
  0
LINE
  5
201
330
1F
100
AcDbEntity
  8
0
  6
Continuous
 62
     7
370
    15
100
AcDbLine
 10
54.4413724556
 20
37.0464712118
 30
0.0
 11
55.1758565575
 21
37.0464712118
 31
0.0
  0
ARC
  5
202
330
1F
100
AcDbEntity
  8
0
  6
Continuous
 62
     8
370
    15
100
AcDbCircle
 10
67.3922013724
 20
63.2814556188
 30
0.0
 40
2.599849554684262
100
AcDbArc
 50
191.0489127928
 51
211.1475172483
  0
ARC
  5
203
330
1F
100
AcDbEntity
  8
0
  6
Continuous
 62
     8
370
    15
100
AcDbCircle
 10
61.3293267778
 20
63.2777436113
 30
0.0
 40
2.589557345971067
100
AcDbArc
 50
328.8108102511
 51
348.8918731041
  0
ARC
  5
204
330
1F
100
AcDbEntity
  8
0
  6
Continuous
 62
     8
370
    15
100
AcDbCircle
 10
61.3195263856
 20
68.3324817522
 30
0.0
 40
2.599867523228563
100
AcDbArc
 50
11.0489655199
 51
31.1474421706
  0
ARC
  5
205
330
1F
100
AcDbEntity
  8
0
  6
Continuous
 62
     8
370
    15
100
AcDbCircle
 10
67.3824258222
 20
68.336197617
 30
0.0
 40
2.589565240077031
100
AcDbArc
 50
148.8108507782
 51
168.8918637781
  0
LINE
  5
206
330
1F
100
AcDbEntity
  8
0
  6
Continuous
 62
     8
370
    15
100
AcDbLine
 10
63.3860289795
 20
64.7601523943
 30
0.0
 11
63.4211687336
 21
64.7117946063
 31
0.0
  0
ARC
  5
207
330
1F
100
AcDbEntity
  8
0
  6
Continuous
 62
     8
370
    15
100
AcDbCircle
 10
61.4836880949
 20
63.2173113867
 30
0.0
 40
2.436188014005964
100
AcDbArc
 50
328.1535962005
 51
23.7873967821
  0
ARC
  5
208
330
1F
100
AcDbEntity
  8
0
  6
Continuous
 62
     8
370
    15
100
AcDbCircle
 10
67.2252447873
 20
63.2170058015
 30
0.0
 40
2.433638401840942
100
AcDbArc
 50
156.9411412841
 51
211.8752240426
  0
LINE
  5
209
330
1F
100
AcDbEntity
  8
0
  6
Continuous
 62
     8
370
    15
100
AcDbLine
 10
65.2600447478
 20
64.6681218841
 30
0.0
 11
65.3257159096
 21
64.7601523943
 31
0.0
  0
LINE
  5
20A
330
1F
100
AcDbEntity
  8
0
  6
Continuous
 62
     8
370
    15
100
AcDbLine
 10
65.3257159096
 20
66.8537919418
 30
0.0
 11
65.2905762223
 21
66.9021491431
 31
0.0
  0
ARC
  5
20B
330
1F
100
AcDbEntity
  8
0
  6
Continuous
 62
     8
370
    15
100
AcDbCircle
 10
67.2280583014
 20
68.3966320906
 30
0.0
 40
2.436189461269198
100
AcDbArc
 50
148.1536098072
 51
203.7873898615
  0
ARC
  5
20C
330
1F
100
AcDbEntity
  8
0
  6
Continuous
 62
     8
370
    15
100
AcDbCircle
 10
61.4865018747
 20
68.3969383366
 30
0.0
 40
2.43363666773202
100
AcDbArc
 50
336.941128972
 51
31.8752386563
  0
LINE
  5
20D
330
1F
100
AcDbEntity
  8
0
  6
Continuous
 62
     8
370
    15
100
AcDbLine
 10
63.4517001276
 20
66.9458212786
 30
0.0
 11
63.3860289795
 21
66.8537919418
 31
0.0
  0
LWPOLYLINE
  5
20E
330
1F
100
AcDbEntity
  8
0
  6
Continuous
 62
     8
370
    15
100
AcDbPolyline
 90
        3
 70
   128
 43
0.0
 10
65.523294463
 20
66.9712213052
 10
65.4355713472
 20
66.9033295028
 10
65.3398111835
 20
66.8431863043
  0
LWPOLYLINE
  5
20F
330
1F
100
AcDbEntity
  8
0
  6
Continuous
 62
     8
370
    15
100
AcDbPolyline
 90
        3
 70
   128
 43
0.0
 10
63.1884504353
 20
64.6427224442
 10
63.2761735419
 20
64.7106142466
 10
63.3719337424
 20
64.7707568585
  0
LWPOLYLINE
  5
210
330
1F
100
AcDbEntity
  8
0
  6
Continuous
 62
     8
370
    15
100
AcDbPolyline
 90
        3
 70
   128
 43
0.0
 10
63.3719337424
 20
66.8431863043
 10
63.2761735419
 20
66.9033295028
 10
63.1961056136
 20
66.9647985527
  0
LWPOLYLINE
  5
211
330
1F
100
AcDbEntity
  8
0
  6
Continuous
 62
     8
370
    15
100
AcDbPolyline
 90
        3
 70
   128
 43
0.0
 10
65.3398111835
 20
64.7707568585
 10
65.4355713472
 20
64.7106142466
 10
65.5156392664
 20
64.6491457834
  0
SPLINE
  5
212
330
1F
100
AcDbEntity
  8
0
  6
Continuous
 62
     8
370
    15
100
AcDbSpline
210
0.0
220
0.0
230
1.0
 70
     8
 71
     3
 72
     9
 73
     5
 74
     0
 42
0.000000001
 43
0.00000001
 40
0.0
 40
0.0
 40
0.0
 40
0.0
 40
0.6012533628224866
 40
1.0
 40
1.0
 40
1.0
 40
1.0
 10
65.06933223721524
 20
66.51904967540635
 30
0.0
 10
65.08023934801925
 20
66.50405710765968
 30
0.0
 10
65.09837997138776
 20
66.47912158351343
 30
0.0
 10
65.11293960246272
 20
66.45196510377289
 30
0.0
 10
65.1187452063924
 20
66.44113654879877
 30
0.0
  0
SPLINE
  5
213
330
1F
100
AcDbEntity
  8
0
  6
Continuous
 62
     8
370
    15
100
AcDbSpline
210
0.0
220
0.0
230
1.0
 70
     8
 71
     3
 72
    10
 73
     6
 74
     0
 42
0.000000001
 43
0.00000001
 40
0.0
 40
0.0
 40
0.0
 40
0.0
 40
0.2538795145087286
 40
0.8015397309297285
 40
1.0
 40
1.0
 40
1.0
 40
1.0
 10
65.12769191637257
 20
65.18656613503657
 30
0.0
 10
65.12342313233508
 20
65.17840559648442
 30
0.0
 10
65.1099458731894
 20
65.15264142292361
 30
0.0
 10
65.0891125980644
 20
65.12284364402466
 30
0.0
 10
65.0734881717052
 20
65.10076639268803
 30
0.0
 10
65.06933223721524
 20
65.09489407404004
 30
0.0
  0
SPLINE
  5
214
330
1F
100
AcDbEntity
  8
0
  6
Continuous
 62
     8
370
    15
100
AcDbSpline
210
0.0
220
0.0
230
1.0
 70
     8
 71
     3
 72
     9
 73
     5
 74
     0
 42
0.000000001
 43
0.00000001
 40
0.0
 40
0.0
 40
0.0
 40
0.0
 40
0.6012480096449914
 40
1.0
 40
1.0
 40
1.0
 40
1.0
 10
63.64379442848298
 20
66.52043184610606
 30
0.0
 10
63.65878702127408
 20
66.53133863752512
 30
0.0
 10
63.68372280908641
 20
66.5494788912043
 30
0.0
 10
63.71087897849034
 20
66.56403911647426
 30
0.0
 10
63.72170755509056
 20
66.56984503528068
 30
0.0
  0
SPLINE
  5
215
330
1F
100
AcDbEntity
  8
0
  6
Continuous
 62
     8
370
    15
100
AcDbSpline
210
0.0
220
0.0
230
1.0
 70
     8
 71
     3
 72
    10
 73
     6
 74
     0
 42
0.000000001
 43
0.00000001
 40
0.0
 40
0.0
 40
0.0
 40
0.0
 40
0.253880423826589
 40
0.8015419076150794
 40
1.0
 40
1.0
 40
1.0
 40
1.0
 10
64.97627807885148
 20
66.57879159859588
 30
0.0
 10
64.98443871420882
 20
66.57452287302257
 30
0.0
 10
65.01020317108616
 20
66.56104581012994
 30
0.0
 10
65.04000057888312
 20
66.54021180218874
 30
0.0
 10
65.06207807105483
 20
66.52458766354944
 30
0.0
 10
65.0679503965117
 20
66.52043184610606
 30
0.0
  0
SPLINE
  5
216
330
1F
100
AcDbEntity
  8
0
  6
Continuous
 62
     8
370
    15
100
AcDbSpline
210
0.0
220
0.0
230
1.0
 70
     8
 71
     3
 72
     9
 73
     5
 74
     0
 42
0.000000001
 43
0.00000001
 40
0.0
 40
0.0
 40
0.0
 40
0.0
 40
0.6012531471142223
 40
1.0
 40
1.0
 40
1.0
 40
1.0
 10
65.0679503965117
 20
65.09351190334034
 30
0.0
 10
65.05295792317345
 20
65.082604734843
 30
0.0
 10
65.02802254710063
 20
65.06446400901116
 30
0.0
 10
65.00086593751202
 20
65.049904756818
 30
0.0
 10
64.9900373249035
 20
65.04409930082561
 30
0.0
  0
SPLINE
  5
217
330
1F
100
AcDbEntity
  8
0
  6
Continuous
 62
     8
370
    15
100
AcDbSpline
210
0.0
220
0.0
230
1.0
 70
     8
 71
     3
 72
    10
 73
     6
 74
     0
 42
0.000000001
 43
0.00000001
 40
0.0
 40
0.0
 40
0.0
 40
0.0
 40
0.2538796214577954
 40
0.8015418177956348
 40
1.0
 40
1.0
 40
1.0
 40
1.0
 10
63.73546678280945
 20
65.03515215085051
 30
0.0
 10
63.72730618072225
 20
65.0394208810467
 30
0.0
 10
63.70154175034487
 20
65.05289799961761
 30
0.0
 10
63.67174428528782
 20
65.07373193140089
 30
0.0
 10
63.649666759282
 20
65.08935608460986
 30
0.0
 10
63.64379442848298
 20
65.09351190334034
 30
0.0
  0
SPLINE
  5
218
330
1F
100
AcDbEntity
  8
0
  6
Continuous
 62
     8
370
    15
100
AcDbSpline
210
0.0
220
0.0
230
1.0
 70
     8
 71
     3
 72
     9
 73
     5
 74
     0
 42
0.000000001
 43
0.00000001
 40
0.0
 40
0.0
 40
0.0
 40
0.0
 40
0.6012477093545484
 40
1.0
 40
1.0
 40
1.0
 40
1.0
 10
63.64241269777818
 20
65.09489407404004
 30
0.0
 10
63.63150553802693
 20
65.10988641580855
 30
0.0
 10
63.61336466267463
 20
65.13482179857218
 30
0.0
 10
63.59880525316211
 20
65.16197843118647
 30
0.0
 10
63.59299965526854
 20
65.17280720064763
 30
0.0
  0
SPLINE
  5
219
330
1F
100
AcDbEntity
  8
0
  6
Continuous
 62
     8
370
    15
100
AcDbSpline
210
0.0
220
0.0
230
1.0
 70
     8
 71
     3
 72
    10
 73
     6
 74
     0
 42
0.000000001
 43
0.00000001
 40
0.0
 40
0.0
 40
0.0
 40
0.0
 40
0.2538832097940795
 40
0.8015407384935038
 40
1.0
 40
1.0
 40
1.0
 40
1.0
 10
63.58405294528836
 20
66.42737702774993
 30
0.0
 10
63.58832173147908
 20
66.43553777081554
 30
0.0
 10
63.60179881820156
 20
66.46130224743759
 30
0.0
 10
63.62263234874106
 20
66.4911000950927
 30
0.0
 10
63.63825676617783
 20
66.51317735516447
 30
0.0
 10
63.64241269777818
 20
66.51904967540635
 30
0.0
  0
SPLINE
  5
21A
330
1F
100
AcDbEntity
  8
0
  6
Continuous
 62
     8
370
    15
100
AcDbSpline
210
0.0
220
0.0
230
1.0
 70
     8
 71
     3
 72
    12
 73
     8
 74
     0
 42
0.000000001
 43
0.00000001
 40
0.0
 40
0.0
 40
0.0
 40
0.0
 40
0.0828965043817849
 40
0.3798513361846773
 40
0.6798146586665615
 40
0.9853030981660134
 40
1.0
 40
1.0
 40
1.0
 40
1.0
 10
65.06111159218082
 20
66.51532790506722
 30
0.0
 10
65.06107028384922
 20
66.51529700880803
 30
0.0
 10
65.06088099933022
 20
66.51515543486084
 30
0.0
 10
65.06196253090349
 20
66.51596011056955
 30
0.0
 10
65.0642620325422
 20
66.51767487155844
 30
0.0
 10
65.0665991857494
 20
66.51941472290694
 30
0.0
 10
65.0678910962283
 20
66.52038720784853
 30
0.0
 10
65.0679503965117
 20
66.52043184610606
 30
0.0
  0
SPLINE
  5
21B
330
1F
100
AcDbEntity
  8
0
  6
Continuous
 62
     8
370
    15
100
AcDbSpline
210
0.0
220
0.0
230
1.0
 70
     8
 71
     3
 72
    12
 73
     8
 74
     0
 42
0.000000001
 43
0.00000001
 40
0.0
 40
0.0
 40
0.0
 40
0.0
 40
0.0147479444248967
 40
0.3212660964756603
 40
0.6222401208062659
 40
0.9201931078486268
 40
1.0
 40
1.0
 40
1.0
 40
1.0
 10
63.64379442848298
 20
66.52043184610606
 30
0.0
 10
63.64385374101542
 20
66.52038720807673
 30
0.0
 10
63.64514579265446
 20
66.51941482270385
 30
0.0
 10
63.64748317036492
 20
66.51767451208791
 30
0.0
 10
63.64978118203907
 20
66.51596122750108
 30
0.0
 10
63.65086173650062
 20
66.51515661693094
 30
0.0
 10
63.65067602376977
 20
66.51529609235483
 30
0.0
 10
63.65063678943945
 20
66.51532555842766
 30
0.0
  0
SPLINE
  5
21C
330
1F
100
AcDbEntity
  8
0
  6
Continuous
 62
     8
370
    15
100
AcDbSpline
210
0.0
220
0.0
230
1.0
 70
     8
 71
     3
 72
    12
 73
     8
 74
     0
 42
0.000000001
 43
0.00000001
 40
0.0
 40
0.0
 40
0.0
 40
0.0
 40
0.0147248585954033
 40
0.3212354964894712
 40
0.6222233270996242
 40
0.9201917257044961
 40
0.9999999999999999
 40
0.9999999999999999
 40
0.9999999999999999
 40
0.9999999999999999
 10
63.64241269777818
 20
65.09489407404004
 30
0.0
 10
63.64245708656303
 20
65.0949533890585
 30
0.0
 10
63.64342546620789
 20
65.0962473973697
 30
0.0
 10
63.64517099788574
 20
65.09858136268792
 30
0.0
 10
63.64688292501567
 20
65.10088020673456
 30
0.0
 10
63.64768636043178
 20
65.10196158030939
 30
0.0
 10
63.64754817764923
 20
65.10177558194046
 30
0.0
 10
63.64751898545658
 20
65.10173628833154
 30
0.0
  0
SPLINE
  5
21D
330
1F
100
AcDbEntity
  8
0
  6
Continuous
 62
     8
370
    15
100
AcDbSpline
210
0.0
220
0.0
230
1.0
 70
     8
 71
     3
 72
    12
 73
     8
 74
     0
 42
0.000000001
 43
0.00000001
 40
0.0
 40
0.0
 40
0.0
 40
0.0
 40
0.0828953643157371
 40
0.3798524910542803
 40
0.6798263748593116
 40
0.9853498361099411
 40
0.9999999999999999
 40
0.9999999999999999
 40
0.9999999999999999
 40
0.9999999999999999
 10
63.64751634548708
 20
66.51221039441431
 30
0.0
 10
63.64754707469456
 20
66.51216926602739
 30
0.0
 10
63.64768788553609
 20
66.51198080289254
 30
0.0
 10
63.64688409550743
 20
66.51306149354677
 30
0.0
 10
63.64516977409761
 20
66.51536129840724
 30
0.0
 10
63.64342723472854
 20
66.5176985885857
 30
0.0
 10
63.64245708868793
 20
66.5189905588083
 30
0.0
 10
63.64241269777818
 20
66.51904967540635
 30
0.0
  0
SPLINE
  5
21E
330
1F
100
AcDbEntity
  8
0
  6
Continuous
 62
     8
370
    15
100
AcDbSpline
210
0.0
220
0.0
230
1.0
 70
     8
 71
     3
 72
    12
 73
     8
 74
     0
 42
0.000000001
 43
0.00000001
 40
0.0
 40
0.0
 40
0.0
 40
0.0
 40
0.0147278082328814
 40
0.3212515396829955
 40
0.622231429645365
 40
0.9201926332362684
 40
1.0
 40
1.0
 40
1.0
 40
1.0
 10
65.0679503965117
 20
65.09351190334034
 30
0.0
 10
65.06789109452069
 20
65.09355634218072
 30
0.0
 10
65.06659756491857
 20
65.09452566807553
 30
0.0
 10
65.06426233459965
 20
65.09626978028764
 30
0.0
 10
65.06196366281891
 20
65.0979818757877
 30
0.0
 10
65.06088300468343
 20
65.09878589710326
 30
0.0
 10
65.06106884770213
 20
65.09864744120414
 30
0.0
 10
65.06110810888774
 20
65.09861819101873
 30
0.0
  0
SPLINE
  5
21F
330
1F
100
AcDbEntity
  8
0
  6
Continuous
 62
     8
370
    15
100
AcDbSpline
210
0.0
220
0.0
230
1.0
 70
     8
 71
     3
 72
    12
 73
     8
 74
     0
 42
0.000000001
 43
0.00000001
 40
0.0
 40
0.0
 40
0.0
 40
0.0
 40
0.0828962546831424
 40
0.3798550235591646
 40
0.6798247490386126
 40
0.9853201024320896
 40
1.0
 40
1.0
 40
1.0
 40
1.0
 10
63.6506332694801
 20
65.09861584437917
 30
0.0
 10
63.65067456013779
 20
65.09864652460304
 30
0.0
 10
63.65086376607729
 20
65.09878711041364
 30
0.0
 10
63.64978266680925
 20
65.0979829442736
 30
0.0
 10
63.64748210763595
 20
65.09626950437838
 30
0.0
 10
63.64514741974114
 20
65.09452557368851
 30
0.0
 10
63.643853743005
 20
65.09355634218784
 30
0.0
 10
63.64379442848298
 20
65.09351190334034
 30
0.0
  0
SPLINE
  5
220
330
1F
100
AcDbEntity
  8
0
  6
Continuous
 62
     8
370
    15
100
AcDbSpline
210
0.0
220
0.0
230
1.0
 70
     8
 71
     3
 72
    12
 73
     8
 74
     0
 42
0.000000001
 43
0.00000001
 40
0.0
 40
0.0
 40
0.0
 40
0.0
 40
0.0147018081484092
 40
0.3212525137243563
 40
0.6222347522760531
 40
0.9201908380655169
 40
1.0
 40
1.0
 40
1.0
 40
1.0
 10
65.06933223721524
 20
66.51904967540635
 30
0.0
 10
65.06928782149058
 20
66.51899055923569
 30
0.0
 10
65.06831728350964
 20
66.51769879850566
 30
0.0
 10
65.06657497827858
 20
66.5153606864301
 30
0.0
 10
65.06486174378989
 20
66.5130633263505
 30
0.0
 10
65.06405857168531
 20
66.5119815308386
 30
0.0
 10
65.06419674071006
 20
66.51216853916924
 30
0.0
 10
65.06422593120372
 20
66.51220804777475
 30
0.0
  0
SPLINE
  5
221
330
1F
100
AcDbEntity
  8
0
  6
Continuous
 62
     8
370
    15
100
AcDbSpline
210
0.0
220
0.0
230
1.0
 70
     8
 71
     3
 72
    12
 73
     8
 74
     0
 42
0.000000001
 43
0.00000001
 40
0.0
 40
0.0
 40
0.0
 40
0.0
 40
0.0828981691529081
 40
0.3798656789146006
 40
0.6798417281668168
 40
0.9853222534237152
 40
1.0
 40
1.0
 40
1.0
 40
1.0
 10
65.06422851617386
 20
65.1017327683722
 30
0.0
 10
65.0641978056391
 20
65.10177412146805
 30
0.0
 10
65.06405708023759
 20
65.10196361445678
 30
0.0
 10
65.06486097700311
 20
65.100881490591
 30
0.0
 10
65.06657431767181
 20
65.09858106839623
 30
0.0
 10
65.06831904743083
 20
65.09624719549483
 30
0.0
 10
65.06928782340647
 20
65.09495338896649
 30
0.0
 10
65.06933223721524
 20
65.09489407404004
 30
0.0
  0
LINE
  5
222
330
1F
100
AcDbEntity
  8
0
  6
Continuous
 62
     7
370
    15
100
AcDbLine
 10
58.995394117
 20
29.303039635
 30
0.0
 11
59.4230052306
 21
29.303039635
 31
0.0
  0
LINE
  5
223
330
1F
100
AcDbEntity
  8
0
  6
Continuous
 62
     7
370
    15
100
AcDbLine
 10
59.4278299215
 20
29.2640396589
 30
0.0
 11
58.9905700128
 21
29.2640396589
 31
0.0
  0
LINE
  5
224
330
1F
100
AcDbEntity
  8
0
  6
Continuous
 62
     7
370
    15
100
AcDbLine
 10
58.2413114683
 20
29.7530406232
 30
0.0
 11
58.5438842396
 21
29.7530406232
 31
0.0
  0
LINE
  5
225
330
1F
100
AcDbEntity
  8
0
  6
Continuous
 62
     7
370
    15
100
AcDbLine
 10
58.5761476002
 20
29.7140406471
 30
0.0
 11
58.2090481076
 21
29.7140406471
 31
0.0
  0
LINE
  5
226
330
1F
100
AcDbEntity
  8
0
  6
Continuous
 62
     7
370
    15
100
AcDbLine
 10
58.6649907872
 20
30.2030404381
 30
0.0
 11
58.796700039
 21
30.2030404381
 31
0.0
  0
LINE
  5
227
330
1F
100
AcDbEntity
  8
0
  6
Continuous
 62
     7
370
    15
100
AcDbLine
 10
58.8138305078
 20
30.6140402769
 30
0.0
 11
58.6478603184
 21
30.6140402769
 31
0.0
  0
LINE
  5
228
330
1F
100
AcDbEntity
  8
0
  6
Continuous
 62
     7
370
    15
100
AcDbLine
 10
70.3895643839
 20
29.303039635
 30
0.0
 11
70.8171752041
 21
29.303039635
 31
0.0
  0
LINE
  5
229
330
1F
100
AcDbEntity
  8
0
  6
Continuous
 62
     7
370
    15
100
AcDbLine
 10
70.8219996018
 20
29.2640396589
 30
0.0
 11
70.384739693
 21
29.2640396589
 31
0.0
  0
LINE
  5
22A
330
1F
100
AcDbEntity
  8
0
  6
Continuous
 62
     7
370
    15
100
AcDbLine
 10
71.2686850816
 20
29.7530406232
 30
0.0
 11
71.5712578529
 21
29.7530406232
 31
0.0
  0
LINE
  5
22B
330
1F
100
AcDbEntity
  8
0
  6
Continuous
 62
     7
370
    15
100
AcDbLine
 10
71.5206191312
 20
29.7140406471
 30
0.0
 11
71.236421721
 21
29.7140406471
 31
0.0
  0
LINE
  5
22C
330
1F
100
AcDbEntity
  8
0
  6
Continuous
 62
     7
370
    15
100
AcDbLine
 10
71.6035212135
 20
29.7140406471
 30
0.0
 11
71.5206191312
 21
29.7140406471
 31
0.0
  0
LINE
  5
22D
330
1F
100
AcDbEntity
  8
0
  6
Continuous
 62
     7
370
    15
100
AcDbLine
 10
71.0158692822
 20
30.2030404381
 30
0.0
 11
71.147578534
 21
30.2030404381
 31
0.0
  0
LINE
  5
22E
330
1F
100
AcDbEntity
  8
0
  6
Continuous
 62
     7
370
    15
100
AcDbLine
 10
71.1647090027
 20
30.6140402769
 30
0.0
 11
70.9987388134
 21
30.6140402769
 31
0.0
  0
LINE
  5
22F
330
1F
100
AcDbEntity
  8
0
  6
Continuous
 62
     7
370
    15
100
AcDbLine
 10
55.7849858706
 20
33.2364275828
 30
0.0
 11
55.1105534484
 21
32.9570683567
 31
0.0
  0
LINE
  5
230
330
1F
100
AcDbEntity
  8
0
  6
Continuous
 62
     7
370
    15
100
AcDbLine
 10
55.7849858706
 20
33.2364275828
 30
0.0
 11
55.7872480312
 21
33.2309669526
 31
0.0
  0
LINE
  5
231
330
1F
100
AcDbEntity
  8
0
  6
Continuous
 62
     7
370
    15
100
AcDbLine
 10
55.1105534484
 20
32.9570683567
 30
0.0
 11
55.1128156089
 21
32.9516088998
 31
0.0
  0
LINE
  5
232
330
1F
100
AcDbEntity
  8
0
  6
Continuous
 62
     7
370
    15
100
AcDbLine
 10
67.4841584141
 20
19.5223973151
 30
0.0
 11
67.0898226495
 21
19.5223973151
 31
0.0
  0
LINE
  5
233
330
1F
100
AcDbEntity
  8
0
  6
Continuous
 62
     7
370
    15
100
AcDbLine
 10
62.7227468183
 20
19.5223973151
 30
0.0
 11
62.3284110537
 21
19.5223973151
 31
0.0
  0
LINE
  5
234
330
1F
100
AcDbEntity
  8
0
  6
Continuous
 62
     7
370
    15
100
AcDbLine
 10
74.0253218767
 20
33.2309669526
 30
0.0
 11
74.0278990736
 21
33.2371890674
 31
0.0
  0
LINE
  5
235
330
1F
100
AcDbEntity
  8
0
  6
Continuous
 62
     7
370
    15
100
AcDbLine
 10
74.0278990736
 20
33.2371890674
 30
0.0
 11
74.7023309092
 21
32.9578298412
 31
0.0
  0
LINE
  5
236
330
1F
100
AcDbEntity
  8
0
  6
Continuous
 62
     7
370
    15
100
AcDbLine
 10
74.6997537123
 20
32.9516088998
 30
0.0
 11
74.7023309092
 21
32.9578298412
 31
0.0
  0
LINE
  5
237
330
1F
100
AcDbEntity
  8
0
  6
Continuous
 62
     7
370
    15
100
AcDbLine
 10
70.6659782841
 20
30.5838495856
 30
0.0
 11
70.1876240234
 21
29.4290002066
 31
0.0
  0
ARC
  5
238
330
1F
100
AcDbEntity
  8
0
  6
Continuous
 62
     7
370
    15
100
AcDbCircle
 10
70.6033697169
 20
29.2567926
 30
0.0
 40
0.4500000000000167
100
AcDbArc
 50
157.5
 51
292.5
  0
LINE
  5
239
330
1F
100
AcDbEntity
  8
0
  6
Continuous
 62
     7
370
    15
100
AcDbLine
 10
70.7755772047
 20
28.8410473186
 30
0.0
 11
71.5921793179
 21
29.1792942912
 31
0.0
  0
ARC
  5
23A
330
1F
100
AcDbEntity
  8
0
  6
Continuous
 62
     7
370
    15
100
AcDbCircle
 10
71.41997157
 20
29.5950401626
 30
0.0
 40
0.4500000000000139
100
AcDbArc
 50
292.5
 51
22.5
  0
LINE
  5
23B
330
1F
100
AcDbEntity
  8
0
  6
Continuous
 62
     7
370
    15
100
AcDbLine
 10
71.8357170912
 20
29.7672471791
 30
0.0
 11
71.497469532
 21
30.5838495856
 31
0.0
  0
ARC
  5
23C
330
1F
100
AcDbEntity
  8
0
  6
Continuous
 62
     7
370
    15
100
AcDbCircle
 10
71.0817240074
 20
30.4116420156
 30
0.0
 40
0.4500000000000022
100
AcDbArc
 50
22.5
 51
157.5
  0
LINE
  5
23D
330
1F
100
AcDbEntity
  8
0
  6
Continuous
 62
     7
370
    15
100
AcDbLine
 10
62.448080578
 20
20.6059505045
 30
0.0
 11
62.1098330188
 21
19.7893486846
 31
0.0
  0
ARC
  5
23E
330
1F
100
AcDbEntity
  8
0
  6
Continuous
 62
     7
370
    15
100
AcDbCircle
 10
62.5255789407
 20
19.6171412114
 30
0.0
 40
0.4500000000000246
100
AcDbArc
 50
157.5
 51
247.5
  0
LINE
  5
23F
330
1F
100
AcDbEntity
  8
0
  6
Continuous
 62
     7
370
    15
100
AcDbLine
 10
62.3533713787
 20
19.2013953567
 30
0.0
 11
63.1699731986
 21
18.8631477975
 31
0.0
  0
ARC
  5
240
330
1F
100
AcDbEntity
  8
0
  6
Continuous
 62
     7
370
    15
100
AcDbCircle
 10
63.3421807937
 20
19.2788936489
 30
0.0
 40
0.4500000000000121
100
AcDbArc
 50
247.5
 51
22.5
  0
LINE
  5
241
330
1F
100
AcDbEntity
  8
0
  6
Continuous
 62
     7
370
    15
100
AcDbLine
 10
63.7579265265
 20
19.4511011254
 30
0.0
 11
63.2795724125
 21
20.6059505045
 31
0.0
  0
ARC
  5
242
330
1F
100
AcDbEntity
  8
0
  6
Continuous
 62
     7
370
    15
100
AcDbCircle
 10
62.8638265033
 20
20.4337430645
 30
0.0
 40
0.4500000000000181
100
AcDbArc
 50
22.5
 51
157.5
  0
LINE
  5
243
330
1F
100
AcDbEntity
  8
0
  6
Continuous
 62
     7
370
    15
100
AcDbLine
 10
68.2995316215
 20
17.3430401579
 30
0.0
 11
61.5130376997
 21
17.3430401579
 31
0.0
  0
LINE
  5
244
330
1F
100
AcDbEntity
  8
0
  6
Continuous
 62
     7
370
    15
100
AcDbLine
 10
61.5130376997
 20
17.3430401579
 30
0.0
 11
55.0572847304
 21
32.9286071388
 31
0.0
  0
LINE
  5
245
330
1F
100
AcDbEntity
  8
0
  6
Continuous
 62
     7
370
    15
100
AcDbLine
 10
55.0572847304
 20
32.9286071388
 30
0.0
 11
55.7917688323
 21
33.2328407443
 31
0.0
  0
LINE
  5
246
330
1F
100
AcDbEntity
  8
0
  6
Continuous
 62
     7
370
    15
100
AcDbLine
 10
55.7917688323
 20
33.2328407443
 30
0.0
 11
74.0208004889
 21
33.2328407443
 31
0.0
  0
LINE
  5
247
330
1F
100
AcDbEntity
  8
0
  6
Continuous
 62
     7
370
    15
100
AcDbLine
 10
74.0208004889
 20
33.2328407443
 30
0.0
 11
74.7552845908
 21
32.9286071388
 31
0.0
  0
LINE
  5
248
330
1F
100
AcDbEntity
  8
0
  6
Continuous
 62
     7
370
    15
100
AcDbLine
 10
58.2203905899
 20
29.1792942912
 30
0.0
 11
59.0369924098
 21
28.8410473186
 31
0.0
  0
ARC
  5
249
330
1F
100
AcDbEntity
  8
0
  6
Continuous
 62
     7
370
    15
100
AcDbCircle
 10
59.2091997242
 20
29.2567926
 30
0.0
 40
0.4500000000000101
100
AcDbArc
 50
247.5
 51
22.5
  0
LINE
  5
24A
330
1F
100
AcDbEntity
  8
0
  6
Continuous
 62
     7
370
    15
100
AcDbLine
 10
59.6249452977
 20
29.4290002066
 30
0.0
 11
59.1465910371
 21
30.5838495856
 31
0.0
  0
ARC
  5
24B
330
1F
100
AcDbEntity
  8
0
  6
Continuous
 62
     7
370
    15
100
AcDbCircle
 10
58.7308454337
 20
30.4116420156
 30
0.0
 40
0.4500000000000339
100
AcDbArc
 50
22.5
 51
157.5
  0
LINE
  5
24C
330
1F
100
AcDbEntity
  8
0
  6
Continuous
 62
     7
370
    15
100
AcDbLine
 10
58.3150997892
 20
30.5838495856
 30
0.0
 11
57.97685223
 21
29.7672471791
 31
0.0
  0
ARC
  5
24D
330
1F
100
AcDbEntity
  8
0
  6
Continuous
 62
     7
370
    15
100
AcDbCircle
 10
58.3925978711
 20
29.5950401626
 30
0.0
 40
0.4500000000000749
100
AcDbArc
 50
157.5
 51
247.5
  0
LINE
  5
24E
330
1F
100
AcDbEntity
  8
0
  6
Continuous
 62
     7
370
    15
100
AcDbLine
 10
66.5329971287
 20
20.6059505045
 30
0.0
 11
66.0546428588
 21
19.4511011254
 31
0.0
  0
ARC
  5
24F
330
1F
100
AcDbEntity
  8
0
  6
Continuous
 62
     7
370
    15
100
AcDbCircle
 10
66.4703886474
 20
19.2788936489
 30
0.0
 40
0.4500000000000139
100
AcDbArc
 50
157.5
 51
292.5
  0
LINE
  5
250
330
1F
100
AcDbEntity
  8
0
  6
Continuous
 62
     7
370
    15
100
AcDbLine
 10
66.6425961959
 20
18.8631477975
 30
0.0
 11
67.4591980891
 21
19.2013953567
 31
0.0
  0
ARC
  5
251
330
1F
100
AcDbEntity
  8
0
  6
Continuous
 62
     7
370
    15
100
AcDbCircle
 10
67.2869905004
 20
19.6171412114
 30
0.0
 40
0.4500000000000112
100
AcDbArc
 50
292.5
 51
22.5
  0
LINE
  5
252
330
1F
100
AcDbEntity
  8
0
  6
Continuous
 62
     7
370
    15
100
AcDbLine
 10
67.7027363024
 20
19.7893486846
 30
0.0
 11
67.3644887432
 21
20.6059505045
 31
0.0
  0
ARC
  5
253
330
1F
100
AcDbEntity
  8
0
  6
Continuous
 62
     7
370
    15
100
AcDbCircle
 10
66.9487429378
 20
20.4337430645
 30
0.0
 40
0.4500000000000036
100
AcDbArc
 50
22.5
 51
157.5
  0
LINE
  5
254
330
1F
100
AcDbEntity
  8
0
  6
Continuous
 62
     7
370
    15
100
AcDbLine
 10
74.7552845908
 20
32.9286071388
 30
0.0
 11
68.2995316215
 21
17.3430401579
 31
0.0
  0
CIRCLE
  5
255
330
1F
100
AcDbEntity
  8
0
  6
Continuous
 62
     7
370
    15
100
AcDbCircle
 10
67.2869905004
 20
19.6171412114
 30
0.0
 40
0.2187499999999858
  0
CIRCLE
  5
256
330
1F
100
AcDbEntity
  8
0
  6
Continuous
 62
     7
370
    15
100
AcDbCircle
 10
66.9487429378
 20
20.4337430645
 30
0.0
 40
0.21875
  0
CIRCLE
  5
257
330
1F
100
AcDbEntity
  8
0
  6
Continuous
 62
     7
370
    15
100
AcDbCircle
 10
66.4703886474
 20
19.2788936489
 30
0.0
 40
0.21875
  0
CIRCLE
  5
258
330
1F
100
AcDbEntity
  8
0
  6
Continuous
 62
     7
370
    15
100
AcDbCircle
 10
62.5255789407
 20
19.6171412114
 30
0.0
 40
0.2187500000000071
  0
CIRCLE
  5
259
330
1F
100
AcDbEntity
  8
0
  6
Continuous
 62
     7
370
    15
100
AcDbCircle
 10
63.3421807937
 20
19.2788936489
 30
0.0
 40
0.21875
  0
CIRCLE
  5
25A
330
1F
100
AcDbEntity
  8
0
  6
Continuous
 62
     7
370
    15
100
AcDbCircle
 10
62.8638265033
 20
20.4337430645
 30
0.0
 40
0.21875
  0
CIRCLE
  5
25B
330
1F
100
AcDbEntity
  8
0
  6
Continuous
 62
     7
370
    15
100
AcDbCircle
 10
71.41997157
 20
29.5950401626
 30
0.0
 40
0.2187499999999858
  0
CIRCLE
  5
25C
330
1F
100
AcDbEntity
  8
0
  6
Continuous
 62
     7
370
    15
100
AcDbCircle
 10
71.0817240074
 20
30.4116420156
 30
0.0
 40
0.21875
  0
CIRCLE
  5
25D
330
1F
100
AcDbEntity
  8
0
  6
Continuous
 62
     7
370
    15
100
AcDbCircle
 10
70.6033697169
 20
29.2567926
 30
0.0
 40
0.21875
  0
CIRCLE
  5
25E
330
1F
100
AcDbEntity
  8
0
  6
Continuous
 62
     7
370
    15
100
AcDbCircle
 10
58.3925978711
 20
29.5950401626
 30
0.0
 40
0.2187500000000071
  0
CIRCLE
  5
25F
330
1F
100
AcDbEntity
  8
0
  6
Continuous
 62
     7
370
    15
100
AcDbCircle
 10
59.2091997242
 20
29.2567926
 30
0.0
 40
0.2187500000000071
  0
CIRCLE
  5
260
330
1F
100
AcDbEntity
  8
0
  6
Continuous
 62
     7
370
    15
100
AcDbCircle
 10
58.7308454337
 20
30.4116420156
 30
0.0
 40
0.2187500000000071
  0
LINE
  5
261
330
1F
100
AcDbEntity
  8
0
  6
Continuous
 62
     8
370
    15
100
AcDbLine
 10
66.6562847311
 20
19.1635930468
 30
0.0
 11
66.6562847311
 21
19.3941942362
 31
0.0
  0
LINE
  5
262
330
1F
100
AcDbEntity
  8
0
  6
Continuous
 62
     8
370
    15
100
AcDbLine
 10
63.1562846634
 20
19.3941942362
 30
0.0
 11
63.1562846634
 21
19.1635930468
 31
0.0
  0
LINE
  5
263
330
1F
100
AcDbEntity
  8
0
  6
Continuous
 62
     7
370
    15
100
AcDbLine
 10
48.3262783147
 20
75.462836352
 30
0.0
 11
48.0469190885
 21
75.462836352
 31
0.0
  0
LINE
  5
264
330
1F
100
AcDbEntity
  8
0
  6
Continuous
 62
     7
370
    15
100
AcDbLine
 10
48.3262783147
 20
75.462836352
 30
0.0
 11
48.3262783147
 21
38.0228369687
 31
0.0
  0
LINE
  5
265
330
1F
100
AcDbEntity
  8
0
  6
Continuous
 62
     7
370
    15
100
AcDbLine
 10
48.3262783147
 20
38.0228369687
 30
0.0
 11
48.0469190885
 21
38.0228369687
 31
0.0
  0
LINE
  5
266
330
1F
100
AcDbEntity
  8
0
  6
Continuous
 62
     7
370
    15
100
AcDbLine
 10
48.0469190885
 20
75.462836352
 30
0.0
 11
48.0469190885
 21
38.0228369687
 31
0.0
  0
LINE
  5
267
330
1F
100
AcDbEntity
  8
0
  6
Continuous
 62
     7
370
    15
100
AcDbLine
 10
44.5999249885
 20
73.3718361874
 30
0.0
 11
43.4450756094
 21
73.3718361874
 31
0.0
  0
LWPOLYLINE
  5
268
330
1F
100
AcDbEntity
  8
0
  6
Continuous
 62
     7
370
    15
100
AcDbPolyline
 90
       14
 70
   128
 43
0.0
 10
44.8939014325
 20
74.1400344597
 10
44.9420767693
 20
74.0774660092
 10
44.9790433822
 20
74.0065224021
 10
45.003589232
 20
73.9295291582
 10
45.0149117679
 20
73.8490065684
 10
45.0126390475
 20
73.7675957755
 10
44.9968461632
 20
73.6879602155
 10
44.9680493759
 20
73.6127116981
 10
44.9271932079
 20
73.5443130216
 10
44.8756152437
 20
73.4850064
 10
44.8150062372
 20
73.436734851
 10
44.7473502721
 20
73.4010788362
 10
44.6748649228
 20
73.3792081555
 10
44.5999249885
 20
73.3718361874
  0
LINE
  5
269
330
1F
100
AcDbEntity
  8
0
  6
Continuous
 62
     7
370
    15
100
AcDbLine
 10
44.3164767429
 20
74.7650349197
 30
0.0
 11
44.8939014325
 21
74.1400344597
 31
0.0
  0
ARC
  5
26A
330
1F
100
AcDbEntity
  8
0
  6
Continuous
 62
     7
370
    15
100
AcDbCircle
 10
44.022500299
 20
74.5014142883
 30
0.0
 40
0.3948645171437154
100
AcDbArc
 50
41.883870413
 51
138.116129587
  0
LINE
  5
26B
330
1F
100
AcDbEntity
  8
0
  6
Continuous
 62
     7
370
    15
100
AcDbLine
 10
43.1510991655
 20
74.1400344597
 30
0.0
 11
43.728523855
 21
74.7650349197
 31
0.0
  0
LWPOLYLINE
  5
26C
330
1F
100
AcDbEntity
  8
0
  6
Continuous
 62
     7
370
    15
100
AcDbPolyline
 90
       14
 70
   128
 43
0.0
 10
43.4450756094
 20
73.3718361874
 10
43.3701356751
 20
73.3792081555
 10
43.2976503258
 20
73.4010788362
 10
43.2299943607
 20
73.436734851
 10
43.1693853542
 20
73.4850064
 10
43.1178073901
 20
73.5443130216
 10
43.076951222
 20
73.6127116981
 10
43.0481544347
 20
73.6879602155
 10
43.0323603771
 20
73.7675957755
 10
43.0300876567
 20
73.8490065684
 10
43.0414101926
 20
73.9295291582
 10
43.0659572157
 20
74.0065224021
 10
43.1029238287
 20
74.0774660092
 10
43.1510991655
 20
74.1400344597
  0
LINE
  5
26D
330
1F
100
AcDbEntity
  8
0
  6
Continuous
 62
     7
370
    15
100
AcDbLine
 10
33.4671763816
 20
40.1138371333
 30
0.0
 11
34.6220259074
 21
40.1138371333
 31
0.0
  0
LWPOLYLINE
  5
26E
330
1F
100
AcDbEntity
  8
0
  6
Continuous
 62
     7
370
    15
100
AcDbPolyline
 90
       14
 70
   128
 43
0.0
 10
33.173199791
 20
39.3456388609
 10
33.1250243809
 20
39.4082073114
 10
33.0880579146
 20
39.4791509186
 10
33.0635114781
 20
39.5561441625
 10
33.0521891623
 20
39.6366667523
 10
33.0544618827
 20
39.7180787184
 10
33.0702552802
 20
39.7977131052
 10
33.0990518476
 20
39.8729616226
 10
33.1399082356
 20
39.9413602991
 10
33.1914859798
 20
40.0006669206
 10
33.2520954263
 20
40.0489384697
 10
33.3197509514
 20
40.0845944844
 10
33.392236154
 20
40.1064651651
 10
33.4671763816
 20
40.1138371333
  0
LINE
  5
26F
330
1F
100
AcDbEntity
  8
0
  6
Continuous
 62
     7
370
    15
100
AcDbLine
 10
33.7506244805
 20
38.720638401
 30
0.0
 11
33.173199791
 21
39.3456388609
 31
0.0
  0
ARC
  5
270
330
1F
100
AcDbEntity
  8
0
  6
Continuous
 62
     7
370
    15
100
AcDbCircle
 10
34.0446011445
 20
38.9842598771
 30
0.0
 40
0.3948652449238894
100
AcDbArc
 50
221.8839403609
 51
318.1160596391
  0
LINE
  5
271
330
1F
100
AcDbEntity
  8
0
  6
Continuous
 62
     7
370
    15
100
AcDbLine
 10
34.9160026447
 20
39.3456388609
 30
0.0
 11
34.3385778085
 21
38.720638401
 31
0.0
  0
LWPOLYLINE
  5
272
330
1F
100
AcDbEntity
  8
0
  6
Continuous
 62
     7
370
    15
100
AcDbPolyline
 90
       14
 70
   128
 43
0.0
 10
34.6220259074
 20
40.1138371333
 10
34.696966135
 20
40.1064651651
 10
34.769451191
 20
40.0845944844
 10
34.8371068627
 20
40.0489384697
 10
34.8977161626
 20
40.0006669206
 10
34.9492941267
 20
39.9413602991
 10
34.9901505881
 20
39.8729616226
 10
35.0189470821
 20
39.7977131052
 10
35.0347402597
 20
39.7180787184
 10
35.0370129801
 20
39.6366667523
 10
35.0256907375
 20
39.5561441625
 10
35.0011443011
 20
39.4791509186
 10
34.9641779815
 20
39.4082073114
 10
34.9160026447
 20
39.3456388609
  0
LINE
  5
273
330
1F
100
AcDbEntity
  8
0
  6
Continuous
 62
     7
370
    15
100
AcDbLine
 10
48.0469190885
 20
38.0228369687
 30
0.0
 11
48.0414596316
 21
38.0228369687
 31
0.0
  0
LINE
  5
274
330
1F
100
AcDbEntity
  8
0
  6
Continuous
 62
     7
370
    15
100
AcDbLine
 10
32.437948558
 20
75.462836352
 30
0.0
 11
32.437948558
 21
38.0228369687
 31
0.0
  0
LINE
  5
275
330
1F
100
AcDbEntity
  8
0
  6
Continuous
 62
     7
370
    15
100
AcDbLine
 10
48.0414596316
 20
75.462836352
 30
0.0
 11
48.0469190885
 21
75.462836352
 31
0.0
  0
LINE
  5
276
330
1F
100
AcDbEntity
  8
0
  6
Continuous
 62
     7
370
    15
100
AcDbLine
 10
43.4450756094
 20
40.1138371333
 30
0.0
 11
44.5999249885
 21
40.1138371333
 31
0.0
  0
LWPOLYLINE
  5
277
330
1F
100
AcDbEntity
  8
0
  6
Continuous
 62
     7
370
    15
100
AcDbPolyline
 90
       14
 70
   128
 43
0.0
 10
43.1510991655
 20
39.3456388609
 10
43.1029238287
 20
39.4082073114
 10
43.0659572157
 20
39.4791509186
 10
43.0414101926
 20
39.5561441625
 10
43.0300876567
 20
39.6366667523
 10
43.0323603771
 20
39.7180787184
 10
43.0481544347
 20
39.7977131052
 10
43.076951222
 20
39.8729616226
 10
43.1178073901
 20
39.9413602991
 10
43.1693853542
 20
40.0006669206
 10
43.2299943607
 20
40.0489384697
 10
43.2976503258
 20
40.0845944844
 10
43.3701356751
 20
40.1064651651
 10
43.4450756094
 20
40.1138371333
  0
LINE
  5
278
330
1F
100
AcDbEntity
  8
0
  6
Continuous
 62
     7
370
    15
100
AcDbLine
 10
43.728523855
 20
38.720638401
 30
0.0
 11
43.1510991655
 21
39.3456388609
 31
0.0
  0
ARC
  5
279
330
1F
100
AcDbEntity
  8
0
  6
Continuous
 62
     7
370
    15
100
AcDbCircle
 10
44.022500299
 20
38.9842590324
 30
0.0
 40
0.3948645171437106
100
AcDbArc
 50
221.883870413
 51
318.116129587
  0
LINE
  5
27A
330
1F
100
AcDbEntity
  8
0
  6
Continuous
 62
     7
370
    15
100
AcDbLine
 10
44.8939014325
 20
39.3456388609
 30
0.0
 11
44.3164767429
 21
38.720638401
 31
0.0
  0
LWPOLYLINE
  5
27B
330
1F
100
AcDbEntity
  8
0
  6
Continuous
 62
     7
370
    15
100
AcDbPolyline
 90
       14
 70
   128
 43
0.0
 10
44.5999249885
 20
40.1138371333
 10
44.6748649228
 20
40.1064651651
 10
44.7473502721
 20
40.0845944844
 10
44.8150062372
 20
40.0489384697
 10
44.8756152437
 20
40.0006669206
 10
44.9271932079
 20
39.9413602991
 10
44.9680493759
 20
39.8729616226
 10
44.9968461632
 20
39.7977131052
 10
45.0126390475
 20
39.7180787184
 10
45.0149117679
 20
39.6366667523
 10
45.003589232
 20
39.5561441625
 10
44.9790433822
 20
39.4791509186
 10
44.9420767693
 20
39.4082073114
 10
44.8939014325
 20
39.3456388609
  0
LINE
  5
27C
330
1F
100
AcDbEntity
  8
0
  6
Continuous
 62
     7
370
    15
100
AcDbLine
 10
34.6220259074
 20
73.3718361874
 30
0.0
 11
33.4671763816
 21
73.3718361874
 31
0.0
  0
LWPOLYLINE
  5
27D
330
1F
100
AcDbEntity
  8
0
  6
Continuous
 62
     7
370
    15
100
AcDbPolyline
 90
       14
 70
   128
 43
0.0
 10
34.9160026447
 20
74.1400344597
 10
34.9641779815
 20
74.0774660092
 10
35.0011443011
 20
74.0065224021
 10
35.0256907375
 20
73.9295291582
 10
35.0370129801
 20
73.8490065684
 10
35.0347402597
 20
73.7675957755
 10
35.0189470821
 20
73.6879602155
 10
34.9901505881
 20
73.6127116981
 10
34.9492941267
 20
73.5443130216
 10
34.8977161626
 20
73.4850064
 10
34.8371068627
 20
73.436734851
 10
34.769451191
 20
73.4010788362
 10
34.696966135
 20
73.3792081555
 10
34.6220259074
 20
73.3718361874
  0
LINE
  5
27E
330
1F
100
AcDbEntity
  8
0
  6
Continuous
 62
     7
370
    15
100
AcDbLine
 10
34.3385778085
 20
74.7650349197
 30
0.0
 11
34.9160026447
 21
74.1400344597
 31
0.0
  0
ARC
  5
27F
330
1F
100
AcDbEntity
  8
0
  6
Continuous
 62
     7
370
    15
100
AcDbCircle
 10
34.0446011445
 20
74.5014134435
 30
0.0
 40
0.3948652449238846
100
AcDbArc
 50
41.8839403609
 51
138.1160596391
  0
LINE
  5
280
330
1F
100
AcDbEntity
  8
0
  6
Continuous
 62
     7
370
    15
100
AcDbLine
 10
33.173199791
 20
74.1400344597
 30
0.0
 11
33.7506244805
 21
74.7650349197
 31
0.0
  0
LWPOLYLINE
  5
281
330
1F
100
AcDbEntity
  8
0
  6
Continuous
 62
     7
370
    15
100
AcDbPolyline
 90
       14
 70
   128
 43
0.0
 10
33.4671763816
 20
73.3718361874
 10
33.392236154
 20
73.3792081555
 10
33.3197509514
 20
73.4010788362
 10
33.2520954263
 20
73.436734851
 10
33.1914859798
 20
73.4850064
 10
33.1399082356
 20
73.5443130216
 10
33.0990518476
 20
73.6127116981
 10
33.0702552802
 20
73.6879602155
 10
33.0544618827
 20
73.7675957755
 10
33.0521891623
 20
73.8490065684
 10
33.0635114781
 20
73.9295291582
 10
33.0880579146
 20
74.0065224021
 10
33.1250243809
 20
74.0774660092
 10
33.173199791
 20
74.1400344597
  0
LINE
  5
282
330
1F
100
AcDbEntity
  8
0
  6
Continuous
 62
     7
370
    15
100
AcDbLine
 10
43.850982067
 20
38.720638401
 30
0.0
 11
43.728523855
 21
38.720638401
 31
0.0
  0
ARC
  5
283
330
1F
100
AcDbEntity
  8
0
  6
Continuous
 62
     7
370
    15
100
AcDbCircle
 10
44.1498488941
 20
38.9919166273
 30
0.0
 40
0.4036251434793373
100
AcDbArc
 50
222.2296902738
 51
260.5717344237
  0
ARC
  5
284
330
1F
100
AcDbEntity
  8
0
  6
Continuous
 62
     7
370
    15
100
AcDbCircle
 10
44.1498488941
 20
74.4937566933
 30
0.0
 40
0.4036251434795023
100
AcDbArc
 50
99.4282655763
 51
137.7703097262
  0
LINE
  5
285
330
1F
100
AcDbEntity
  8
0
  6
Continuous
 62
     7
370
    15
100
AcDbLine
 10
43.850982067
 20
74.7650349197
 30
0.0
 11
43.728523855
 21
74.7650349197
 31
0.0
  0
LWPOLYLINE
  5
286
330
1F
100
AcDbEntity
  8
0
  6
Continuous
 62
     7
370
    15
100
AcDbPolyline
 90
       25
 70
   128
 43
0.0
 10
44.3470569763
 20
39.0388368584
 10
44.3401707625
 20
39.0954530577
 10
44.3199814491
 20
39.1482113816
 10
44.2878641668
 20
39.1935167782
 10
44.2460083303
 20
39.2282798966
 10
44.19726628
 20
39.2501329775
 10
44.144958511
 20
39.2575870781
 10
44.0926519152
 20
39.2501329775
 10
44.043909865
 20
39.2282798966
 10
44.0020540285
 20
39.1935167782
 10
43.9699367462
 20
39.1482113816
 10
43.9497462594
 20
39.0954530577
 10
43.9428600456
 20
39.0388368584
 10
43.9497462594
 20
38.9822194858
 10
43.9699367462
 20
38.929461162
 10
44.0020540285
 20
38.8841569386
 10
44.043909865
 20
38.8493938202
 10
44.0926519152
 20
38.8275407394
 10
44.144958511
 20
38.8200866388
 10
44.19726628
 20
38.8275407394
 10
44.2460083303
 20
38.8493938202
 10
44.2878641668
 20
38.8841569386
 10
44.3199814491
 20
38.929461162
 10
44.3401707625
 20
38.9822194858
 10
44.3470569763
 20
39.0388368584
  0
LWPOLYLINE
  5
287
330
1F
100
AcDbEntity
  8
0
  6
Continuous
 62
     7
370
    15
100
AcDbPolyline
 90
       25
 70
   128
 43
0.0
 10
44.9244816659
 20
39.6638361451
 10
44.9175954521
 20
39.7204535177
 10
44.8974061386
 20
39.7732118415
 10
44.8652888563
 20
39.8185160649
 10
44.8234330199
 20
39.8532791833
 10
44.7746909696
 20
39.8751334375
 10
44.7223832005
 20
39.8825863647
 10
44.6700766048
 20
39.8751334375
 10
44.6213345545
 20
39.8532791833
 10
44.579478718
 20
39.8185160649
 10
44.5473614357
 20
39.7732118415
 10
44.527170949
 20
39.7204535177
 10
44.5202847352
 20
39.6638361451
 10
44.527170949
 20
39.6072199458
 10
44.5473614357
 20
39.5544616219
 10
44.579478718
 20
39.5091573986
 10
44.6213345545
 20
39.4743931069
 10
44.6700766048
 20
39.452540026
 10
44.7223832005
 20
39.4450870987
 10
44.7746909696
 20
39.452540026
 10
44.8234330199
 20
39.4743931069
 10
44.8652888563
 20
39.5091573986
 10
44.8974061386
 20
39.5544616219
 10
44.9175954521
 20
39.6072199458
 10
44.9244816659
 20
39.6638361451
  0
LINE
  5
288
330
1F
100
AcDbEntity
  8
0
  6
Continuous
 62
     7
370
    15
100
AcDbLine
 10
43.850982067
 20
38.720638401
 30
0.0
 11
43.2735573775
 21
39.3456388609
 31
0.0
  0
LWPOLYLINE
  5
289
330
1F
100
AcDbEntity
  8
0
  6
Continuous
 62
     7
370
    15
100
AcDbPolyline
 90
       14
 70
   128
 43
0.0
 10
43.2735573775
 20
39.3456388609
 10
43.2253820407
 20
39.4082073114
 10
43.1884154277
 20
39.4791509186
 10
43.1638695779
 20
39.5561441625
 10
43.1525470421
 20
39.6366667523
 10
43.1548197625
 20
39.7180787184
 10
43.1706126467
 20
39.7977131052
 10
43.199409434
 20
39.8729616226
 10
43.2402656021
 20
39.9413602991
 10
43.2918435662
 20
40.0006669206
 10
43.3524525727
 20
40.0489384697
 10
43.4201085378
 20
40.0845944844
 10
43.4925938872
 20
40.1064651651
 10
43.5675338214
 20
40.1138371333
  0
LWPOLYLINE
  5
28A
330
1F
100
AcDbEntity
  8
0
  6
Continuous
 62
     7
370
    15
100
AcDbPolyline
 90
       25
 70
   128
 43
0.0
 10
43.7696322868
 20
39.6638361451
 10
43.762746073
 20
39.7204535177
 10
43.7425567596
 20
39.7732118415
 10
43.7104394772
 20
39.8185160649
 10
43.6685836408
 20
39.8532791833
 10
43.6198415905
 20
39.8751334375
 10
43.5675338214
 20
39.8825863647
 10
43.5152272257
 20
39.8751334375
 10
43.4664851754
 20
39.8532791833
 10
43.4246281656
 20
39.8185160649
 10
43.3925120566
 20
39.7732118415
 10
43.3723215699
 20
39.7204535177
 10
43.3654353561
 20
39.6638361451
 10
43.3723215699
 20
39.6072199458
 10
43.3925120566
 20
39.5544616219
 10
43.4246281656
 20
39.5091573986
 10
43.4664851754
 20
39.4743931069
 10
43.5152272257
 20
39.452540026
 10
43.5675338214
 20
39.4450870987
 10
43.6198415905
 20
39.452540026
 10
43.6685836408
 20
39.4743931069
 10
43.7104394772
 20
39.5091573986
 10
43.7425567596
 20
39.5544616219
 10
43.762746073
 20
39.6072199458
 10
43.7696322868
 20
39.6638361451
  0
LINE
  5
28B
330
1F
100
AcDbEntity
  8
0
  6
Continuous
 62
     7
370
    15
100
AcDbLine
 10
43.2735573775
 20
74.1400344597
 30
0.0
 11
43.850982067
 21
74.7650349197
 31
0.0
  0
LWPOLYLINE
  5
28C
330
1F
100
AcDbEntity
  8
0
  6
Continuous
 62
     7
370
    15
100
AcDbPolyline
 90
       14
 70
   128
 43
0.0
 10
43.5675338214
 20
73.3718361874
 10
43.4925938872
 20
73.3792081555
 10
43.4201085378
 20
73.4010788362
 10
43.3524525727
 20
73.436734851
 10
43.2918435662
 20
73.4850064
 10
43.2402656021
 20
73.5443130216
 10
43.199409434
 20
73.6127116981
 10
43.1706126467
 20
73.6879602155
 10
43.1548197625
 20
73.7675957755
 10
43.1525470421
 20
73.8490065684
 10
43.1638695779
 20
73.9295291582
 10
43.1884154277
 20
74.0065224021
 10
43.2253820407
 20
74.0774660092
 10
43.2735573775
 20
74.1400344597
  0
LWPOLYLINE
  5
28D
330
1F
100
AcDbEntity
  8
0
  6
Continuous
 62
     7
370
    15
100
AcDbPolyline
 90
       25
 70
   128
 43
0.0
 10
44.5202847352
 20
73.8218371756
 10
44.527170949
 20
73.765219803
 10
44.5473614357
 20
73.7124614791
 10
44.579478718
 20
73.6671572558
 10
44.6213345545
 20
73.6323941374
 10
44.6700766048
 20
73.6105398832
 10
44.7223832005
 20
73.6030869559
 10
44.7746909696
 20
73.6105398832
 10
44.8234330199
 20
73.6323941374
 10
44.8652888563
 20
73.6671572558
 10
44.8974061386
 20
73.7124614791
 10
44.9175954521
 20
73.765219803
 10
44.9244816659
 20
73.8218371756
 10
44.9175954521
 20
73.8784533749
 10
44.8974061386
 20
73.9312116987
 10
44.8652888563
 20
73.9765159221
 10
44.8234330199
 20
74.0112802138
 10
44.7746909696
 20
74.0331332947
 10
44.7223832005
 20
74.0405862219
 10
44.6700766048
 20
74.0331332947
 10
44.6213345545
 20
74.0112802138
 10
44.579478718
 20
73.9765159221
 10
44.5473614357
 20
73.9312116987
 10
44.527170949
 20
73.8784533749
 10
44.5202847352
 20
73.8218371756
  0
LWPOLYLINE
  5
28E
330
1F
100
AcDbEntity
  8
0
  6
Continuous
 62
     7
370
    15
100
AcDbPolyline
 90
       25
 70
   128
 43
0.0
 10
43.3654353561
 20
73.8218371756
 10
43.3723215699
 20
73.765219803
 10
43.3925120566
 20
73.7124614791
 10
43.4246281656
 20
73.6671572558
 10
43.4664851754
 20
73.6323941374
 10
43.5152272257
 20
73.6105398832
 10
43.5675338214
 20
73.6030869559
 10
43.6198415905
 20
73.6105398832
 10
43.6685836408
 20
73.6323941374
 10
43.7104394772
 20
73.6671572558
 10
43.7425567596
 20
73.7124614791
 10
43.762746073
 20
73.765219803
 10
43.7696322868
 20
73.8218371756
 10
43.762746073
 20
73.8784533749
 10
43.7425567596
 20
73.9312116987
 10
43.7104394772
 20
73.9765159221
 10
43.6685836408
 20
74.0112802138
 10
43.6198415905
 20
74.0331332947
 10
43.5675338214
 20
74.0405862219
 10
43.5152272257
 20
74.0331332947
 10
43.4664851754
 20
74.0112802138
 10
43.4246281656
 20
73.9765159221
 10
43.3925120566
 20
73.9312116987
 10
43.3723215699
 20
73.8784533749
 10
43.3654353561
 20
73.8218371756
  0
LWPOLYLINE
  5
28F
330
1F
100
AcDbEntity
  8
0
  6
Continuous
 62
     7
370
    15
100
AcDbPolyline
 90
       25
 70
   128
 43
0.0
 10
43.9428600456
 20
74.4468364622
 10
43.9497462594
 20
74.3902202629
 10
43.9699367462
 20
74.337461939
 10
44.0020540285
 20
74.2921565424
 10
44.043909865
 20
74.257393424
 10
44.0926519152
 20
74.2355403431
 10
44.144958511
 20
74.2280862426
 10
44.19726628
 20
74.2355403431
 10
44.2460083303
 20
74.257393424
 10
44.2878641668
 20
74.2921565424
 10
44.3199814491
 20
74.337461939
 10
44.3401707625
 20
74.3902202629
 10
44.3470569763
 20
74.4468364622
 10
44.3401707625
 20
74.5034538348
 10
44.3199814491
 20
74.5562121587
 10
44.2878641668
 20
74.601516382
 10
44.2460083303
 20
74.6362795004
 10
44.19726628
 20
74.6581325813
 10
44.144958511
 20
74.6655866819
 10
44.0926519152
 20
74.6581325813
 10
44.043909865
 20
74.6362795004
 10
44.0020540285
 20
74.601516382
 10
43.9699367462
 20
74.5562121587
 10
43.9497462594
 20
74.5034538348
 10
43.9428600456
 20
74.4468364622
  0
ARC
  5
290
330
1F
100
AcDbEntity
  8
0
  6
Continuous
 62
     7
370
    15
100
AcDbCircle
 10
44.8951277613
 20
39.6688708278
 30
0.0
 40
0.2180013304330109
100
AcDbArc
 50
115.5180277912
 51
181.3233484387
  0
ARC
  5
291
330
1F
100
AcDbEntity
  8
0
  6
Continuous
 62
     7
370
    15
100
AcDbCircle
 10
44.8963114396
 20
39.6595302253
 30
0.0
 40
0.2191691659153681
100
AcDbArc
 50
178.8742627079
 51
244.2846583491
  0
ARC
  5
292
330
1F
100
AcDbEntity
  8
0
  6
Continuous
 62
     7
370
    15
100
AcDbCircle
 10
44.895162196
 20
73.8168144042
 30
0.0
 40
0.218035481179751
100
AcDbArc
 50
178.6799897837
 51
244.3654761192
  0
ARC
  5
293
330
1F
100
AcDbEntity
  8
0
  6
Continuous
 62
     7
370
    15
100
AcDbCircle
 10
44.8963460088
 20
73.826132711
 30
0.0
 40
0.2192035247406754
100
AcDbArc
 50
115.8313908338
 51
181.1228460201
  0
LINE
  5
294
330
1F
100
AcDbEntity
  8
0
  6
Continuous
 62
     7
370
    15
100
AcDbLine
 10
43.2735573775
 20
39.3456388609
 30
0.0
 11
43.1510991655
 21
39.3456388609
 31
0.0
  0
LINE
  5
295
330
1F
100
AcDbEntity
  8
0
  6
Continuous
 62
     7
370
    15
100
AcDbLine
 10
43.2735573775
 20
74.1400344597
 30
0.0
 11
43.1510991655
 21
74.1400344597
 31
0.0
  0
ARC
  5
296
330
1F
100
AcDbEntity
  8
0
  6
Continuous
 62
     7
370
    15
100
AcDbCircle
 10
44.322508923
 20
39.0388368584
 30
0.0
 40
0.2246256795441877
100
AcDbArc
 50
116.0710643854
 51
243.9289356146
  0
ARC
  5
297
330
1F
100
AcDbEntity
  8
0
  6
Continuous
 62
     7
370
    15
100
AcDbCircle
 10
44.3225409016
 20
74.4468370489
 30
0.0
 40
0.2246517945543302
100
AcDbArc
 50
116.1848794787
 51
243.8151205213
  0
ARC
  5
298
330
1F
100
AcDbEntity
  8
0
  6
Continuous
 62
     7
370
    15
100
AcDbCircle
 10
43.7450836313
 20
39.6638367317
 30
0.0
 40
0.2246248879251834
100
AcDbArc
 50
116.070992178
 51
243.929007822
  0
ARC
  5
299
330
1F
100
AcDbEntity
  8
0
  6
Continuous
 62
     7
370
    15
100
AcDbCircle
 10
43.7451171507
 20
73.8218365889
 30
0.0
 40
0.2246522087223604
100
AcDbArc
 50
116.1850942901
 51
243.8149057099
  0
LINE
  5
29A
330
1F
100
AcDbEntity
  8
0
  6
Continuous
 62
     7
370
    15
100
AcDbLine
 10
33.8730831326
 20
38.720638401
 30
0.0
 11
33.7506244805
 21
38.720638401
 31
0.0
  0
ARC
  5
29B
330
1F
100
AcDbEntity
  8
0
  6
Continuous
 62
     7
370
    15
100
AcDbCircle
 10
34.1719525924
 20
38.9919211505
 30
0.0
 40
0.4036301329211036
100
AcDbArc
 50
222.229914522
 51
260.5713887838
  0
ARC
  5
29C
330
1F
100
AcDbEntity
  8
0
  6
Continuous
 62
     7
370
    15
100
AcDbCircle
 10
34.1719525924
 20
74.4937521702
 30
0.0
 40
0.4036301329212818
100
AcDbArc
 50
99.4286112162
 51
137.770085478
  0
LINE
  5
29D
330
1F
100
AcDbEntity
  8
0
  6
Continuous
 62
     7
370
    15
100
AcDbLine
 10
33.8730831326
 20
74.7650349197
 30
0.0
 11
33.7506244805
 21
74.7650349197
 31
0.0
  0
LWPOLYLINE
  5
29E
330
1F
100
AcDbEntity
  8
0
  6
Continuous
 62
     7
370
    15
100
AcDbPolyline
 90
       25
 70
   128
 43
0.0
 10
34.3691584819
 20
39.0388368584
 10
34.3622721214
 20
39.0954530577
 10
34.342082368
 20
39.1482113816
 10
34.3099650857
 20
39.1935167782
 10
34.2681091025
 20
39.2282798966
 10
34.2193667589
 20
39.2501329775
 10
34.1670598699
 20
39.2575870781
 10
34.1147528341
 20
39.2501329775
 10
34.0660104905
 20
39.2282798966
 10
34.0241545074
 20
39.1935167782
 10
33.9920372251
 20
39.1482113816
 10
33.9718474716
 20
39.0954530577
 10
33.9649611112
 20
39.0388368584
 10
33.9718474716
 20
38.9822194858
 10
33.9920372251
 20
38.929461162
 10
34.0241545074
 20
38.8841569386
 10
34.0660104905
 20
38.8493938202
 10
34.1147528341
 20
38.8275407394
 10
34.1670598699
 20
38.8200866388
 10
34.2193667589
 20
38.8275407394
 10
34.2681091025
 20
38.8493938202
 10
34.3099650857
 20
38.8841569386
 10
34.342082368
 20
38.929461162
 10
34.3622721214
 20
38.9822194858
 10
34.3691584819
 20
39.0388368584
  0
LWPOLYLINE
  5
29F
330
1F
100
AcDbEntity
  8
0
  6
Continuous
 62
     7
370
    15
100
AcDbPolyline
 90
       25
 70
   128
 43
0.0
 10
34.9465831714
 20
39.6638361451
 10
34.9396969576
 20
39.7204535177
 10
34.9195070575
 20
39.7732118415
 10
34.8873897752
 20
39.8185160649
 10
34.8455339387
 20
39.8532791833
 10
34.7967915951
 20
39.8751334375
 10
34.7444844127
 20
39.8825863647
 10
34.6921775236
 20
39.8751334375
 10
34.6434351801
 20
39.8532791833
 10
34.6015793436
 20
39.8185160649
 10
34.5694620613
 20
39.7732118415
 10
34.5492721612
 20
39.7204535177
 10
34.5423859474
 20
39.6638361451
 10
34.5492721612
 20
39.6072199458
 10
34.5694620613
 20
39.5544616219
 10
34.6015793436
 20
39.5091573986
 10
34.6434351801
 20
39.4743931069
 10
34.6921775236
 20
39.452540026
 10
34.7444844127
 20
39.4450870987
 10
34.7967915951
 20
39.452540026
 10
34.8455339387
 20
39.4743931069
 10
34.8873897752
 20
39.5091573986
 10
34.9195070575
 20
39.5544616219
 10
34.9396969576
 20
39.6072199458
 10
34.9465831714
 20
39.6638361451
  0
LINE
  5
2A0
330
1F
100
AcDbEntity
  8
0
  6
Continuous
 62
     7
370
    15
100
AcDbLine
 10
33.8730831326
 20
38.720638401
 30
0.0
 11
33.295658443
 21
39.3456388609
 31
0.0
  0
LWPOLYLINE
  5
2A1
330
1F
100
AcDbEntity
  8
0
  6
Continuous
 62
     7
370
    15
100
AcDbPolyline
 90
       14
 70
   128
 43
0.0
 10
33.295658443
 20
39.3456388609
 10
33.2474831062
 20
39.4082073114
 10
33.2105166399
 20
39.4791509186
 10
33.1859702035
 20
39.5561441625
 10
33.1746478143
 20
39.6366667523
 10
33.1769205347
 20
39.7180787184
 10
33.1927140056
 20
39.7977131052
 10
33.2215104996
 20
39.8729616226
 10
33.2623669609
 20
39.9413602991
 10
33.3139446318
 20
40.0006669206
 10
33.3745540783
 20
40.0489384697
 10
33.4422096034
 20
40.0845944844
 10
33.514694806
 20
40.1064651651
 10
33.5896351803
 20
40.1138371333
  0
LWPOLYLINE
  5
2A2
330
1F
100
AcDbEntity
  8
0
  6
Continuous
 62
     7
370
    15
100
AcDbPolyline
 90
       25
 70
   128
 43
0.0
 10
33.7917337923
 20
39.6638361451
 10
33.7848474319
 20
39.7204535177
 10
33.7646576784
 20
39.7732118415
 10
33.7325403961
 20
39.8185160649
 10
33.690684413
 20
39.8532791833
 10
33.6419420694
 20
39.8751334375
 10
33.5896351803
 20
39.8825863647
 10
33.5373281446
 20
39.8751334375
 10
33.488585801
 20
39.8532791833
 10
33.4467298178
 20
39.8185160649
 10
33.4146125355
 20
39.7732118415
 10
33.3944227821
 20
39.7204535177
 10
33.3875364216
 20
39.6638361451
 10
33.3944227821
 20
39.6072199458
 10
33.4146125355
 20
39.5544616219
 10
33.4467298178
 20
39.5091573986
 10
33.488585801
 20
39.4743931069
 10
33.5373281446
 20
39.452540026
 10
33.5896351803
 20
39.4450870987
 10
33.6419420694
 20
39.452540026
 10
33.690684413
 20
39.4743931069
 10
33.7325403961
 20
39.5091573986
 10
33.7646576784
 20
39.5544616219
 10
33.7848474319
 20
39.6072199458
 10
33.7917337923
 20
39.6638361451
  0
LINE
  5
2A3
330
1F
100
AcDbEntity
  8
0
  6
Continuous
 62
     7
370
    15
100
AcDbLine
 10
33.295658443
 20
74.1400344597
 30
0.0
 11
33.8730831326
 21
74.7650349197
 31
0.0
  0
LWPOLYLINE
  5
2A4
330
1F
100
AcDbEntity
  8
0
  6
Continuous
 62
     7
370
    15
100
AcDbPolyline
 90
       14
 70
   128
 43
0.0
 10
33.5896351803
 20
73.3718361874
 10
33.514694806
 20
73.3792081555
 10
33.4422096034
 20
73.4010788362
 10
33.3745540783
 20
73.436734851
 10
33.3139446318
 20
73.4850064
 10
33.2623669609
 20
73.5443130216
 10
33.2215104996
 20
73.6127116981
 10
33.1927140056
 20
73.6879602155
 10
33.1769205347
 20
73.7675957755
 10
33.1746478143
 20
73.8490065684
 10
33.1859702035
 20
73.9295291582
 10
33.2105166399
 20
74.0065224021
 10
33.2474831062
 20
74.0774660092
 10
33.295658443
 20
74.1400344597
  0
LWPOLYLINE
  5
2A5
330
1F
100
AcDbEntity
  8
0
  6
Continuous
 62
     7
370
    15
100
AcDbPolyline
 90
       25
 70
   128
 43
0.0
 10
34.5423859474
 20
73.8218371756
 10
34.5492721612
 20
73.765219803
 10
34.5694620613
 20
73.7124614791
 10
34.6015793436
 20
73.6671572558
 10
34.6434351801
 20
73.6323941374
 10
34.6921775236
 20
73.6105398832
 10
34.7444844127
 20
73.6030869559
 10
34.7967915951
 20
73.6105398832
 10
34.8455339387
 20
73.6323941374
 10
34.8873897752
 20
73.6671572558
 10
34.9195070575
 20
73.7124614791
 10
34.9396969576
 20
73.765219803
 10
34.9465831714
 20
73.8218371756
 10
34.9396969576
 20
73.8784533749
 10
34.9195070575
 20
73.9312116987
 10
34.8873897752
 20
73.9765159221
 10
34.8455339387
 20
74.0112802138
 10
34.7967915951
 20
74.0331332947
 10
34.7444844127
 20
74.0405862219
 10
34.6921775236
 20
74.0331332947
 10
34.6434351801
 20
74.0112802138
 10
34.6015793436
 20
73.9765159221
 10
34.5694620613
 20
73.9312116987
 10
34.5492721612
 20
73.8784533749
 10
34.5423859474
 20
73.8218371756
  0
LWPOLYLINE
  5
2A6
330
1F
100
AcDbEntity
  8
0
  6
Continuous
 62
     7
370
    15
100
AcDbPolyline
 90
       25
 70
   128
 43
0.0
 10
33.3875364216
 20
73.8218371756
 10
33.3944227821
 20
73.765219803
 10
33.4146125355
 20
73.7124614791
 10
33.4467298178
 20
73.6671572558
 10
33.488585801
 20
73.6323941374
 10
33.5373281446
 20
73.6105398832
 10
33.5896351803
 20
73.6030869559
 10
33.6419420694
 20
73.6105398832
 10
33.690684413
 20
73.6323941374
 10
33.7325403961
 20
73.6671572558
 10
33.7646576784
 20
73.7124614791
 10
33.7848474319
 20
73.765219803
 10
33.7917337923
 20
73.8218371756
 10
33.7848474319
 20
73.8784533749
 10
33.7646576784
 20
73.9312116987
 10
33.7325403961
 20
73.9765159221
 10
33.690684413
 20
74.0112802138
 10
33.6419420694
 20
74.0331332947
 10
33.5896351803
 20
74.0405862219
 10
33.5373281446
 20
74.0331332947
 10
33.488585801
 20
74.0112802138
 10
33.4467298178
 20
73.9765159221
 10
33.4146125355
 20
73.9312116987
 10
33.3944227821
 20
73.8784533749
 10
33.3875364216
 20
73.8218371756
  0
LWPOLYLINE
  5
2A7
330
1F
100
AcDbEntity
  8
0
  6
Continuous
 62
     7
370
    15
100
AcDbPolyline
 90
       25
 70
   128
 43
0.0
 10
33.9649611112
 20
74.4468364622
 10
33.9718474716
 20
74.3902202629
 10
33.9920372251
 20
74.337461939
 10
34.0241545074
 20
74.2921565424
 10
34.0660104905
 20
74.257393424
 10
34.1147528341
 20
74.2355403431
 10
34.1670598699
 20
74.2280862426
 10
34.2193667589
 20
74.2355403431
 10
34.2681091025
 20
74.257393424
 10
34.3099650857
 20
74.2921565424
 10
34.342082368
 20
74.337461939
 10
34.3622721214
 20
74.3902202629
 10
34.3691584819
 20
74.4468364622
 10
34.3622721214
 20
74.5034538348
 10
34.342082368
 20
74.5562121587
 10
34.3099650857
 20
74.601516382
 10
34.2681091025
 20
74.6362795004
 10
34.2193667589
 20
74.6581325813
 10
34.1670598699
 20
74.6655866819
 10
34.1147528341
 20
74.6581325813
 10
34.0660104905
 20
74.6362795004
 10
34.0241545074
 20
74.601516382
 10
33.9920372251
 20
74.5562121587
 10
33.9718474716
 20
74.5034538348
 10
33.9649611112
 20
74.4468364622
  0
ARC
  5
2A8
330
1F
100
AcDbEntity
  8
0
  6
Continuous
 62
     7
370
    15
100
AcDbCircle
 10
34.9172607806
 20
39.6688609825
 30
0.0
 40
0.2180326086077884
100
AcDbArc
 50
115.6342057268
 51
181.3205706824
  0
ARC
  5
2A9
330
1F
100
AcDbEntity
  8
0
  6
Continuous
 62
     7
370
    15
100
AcDbCircle
 10
34.9184083016
 20
39.6595273709
 30
0.0
 40
0.2191645793865065
100
AcDbArc
 50
178.8734927761
 51
244.2854282808
  0
ARC
  5
2AA
330
1F
100
AcDbEntity
  8
0
  6
Continuous
 62
     7
370
    15
100
AcDbCircle
 10
34.9172247055
 20
73.816799689
 30
0.0
 40
0.2179968350951768
100
AcDbArc
 50
178.6758871317
 51
244.4827366384
  0
ARC
  5
2AB
330
1F
100
AcDbEntity
  8
0
  6
Continuous
 62
     7
370
    15
100
AcDbCircle
 10
34.9184083016
 20
73.8261459498
 30
0.0
 40
0.219164579386516
100
AcDbArc
 50
115.7145717192
 51
181.1265072239
  0
LINE
  5
2AC
330
1F
100
AcDbEntity
  8
0
  6
Continuous
 62
     7
370
    15
100
AcDbLine
 10
33.295658443
 20
39.3456388609
 30
0.0
 11
33.173199791
 21
39.3456388609
 31
0.0
  0
LINE
  5
2AD
330
1F
100
AcDbEntity
  8
0
  6
Continuous
 62
     7
370
    15
100
AcDbLine
 10
33.295658443
 20
74.1400344597
 30
0.0
 11
33.173199791
 21
74.1400344597
 31
0.0
  0
ARC
  5
2AE
330
1F
100
AcDbEntity
  8
0
  6
Continuous
 62
     7
370
    15
100
AcDbCircle
 10
34.3446406361
 20
39.0388368584
 30
0.0
 40
0.2246507454598844
100
AcDbArc
 50
116.1846744281
 51
243.8153255719
  0
ARC
  5
2AF
330
1F
100
AcDbEntity
  8
0
  6
Continuous
 62
     7
370
    15
100
AcDbCircle
 10
34.3446421782
 20
74.4468370489
 30
0.0
 40
0.2246519523905108
100
AcDbArc
 50
116.1849613419
 51
243.8150386581
  0
ARC
  5
2B0
330
1F
100
AcDbEntity
  8
0
  6
Continuous
 62
     7
370
    15
100
AcDbCircle
 10
33.7672181816
 20
39.6638367317
 30
0.0
 40
0.2246522581868649
100
AcDbArc
 50
116.185119945
 51
243.814880055
  0
ARC
  5
2B1
330
1F
100
AcDbEntity
  8
0
  6
Continuous
 62
     7
370
    15
100
AcDbCircle
 10
33.7672181816
 20
73.8218365889
 30
0.0
 40
0.2246522581868681
100
AcDbArc
 50
116.185119945
 51
243.814880055
  0
ARC
  5
2B2
330
1F
100
AcDbEntity
  8
0
  6
Continuous
 62
     7
370
    15
100
AcDbCircle
 10
34.9180489658
 20
39.6688524468
 30
0.0
 40
0.218059398885657
100
AcDbArc
 50
115.7496281564
 51
181.3181650172
  0
ARC
  5
2B3
330
1F
100
AcDbEntity
  8
0
  6
Continuous
 62
     7
370
    15
100
AcDbCircle
 10
34.9192055682
 20
39.6595384074
 30
0.0
 40
0.2192004311787979
100
AcDbArc
 50
178.876562392
 51
244.1689584415
  0
ARC
  5
2B4
330
1F
100
AcDbEntity
  8
0
  6
Continuous
 62
     7
370
    15
100
AcDbCircle
 10
34.3454354269
 20
39.0388368584
 30
0.0
 40
0.2246781323218549
100
AcDbArc
 50
116.2990006324
 51
243.7009993676
  0
ARC
  5
2B5
330
1F
100
AcDbEntity
  8
0
  6
Continuous
 62
     7
370
    15
100
AcDbCircle
 10
34.3454354269
 20
74.4468364622
 30
0.0
 40
0.2246781323218549
100
AcDbArc
 50
116.2990006324
 51
243.7009993676
  0
ARC
  5
2B6
330
1F
100
AcDbEntity
  8
0
  6
Continuous
 62
     7
370
    15
100
AcDbCircle
 10
44.3233008441
 20
39.0388368584
 30
0.0
 40
0.2246505876259727
100
AcDbArc
 50
116.1845925645
 51
243.8154074355
  0
ARC
  5
2B7
330
1F
100
AcDbEntity
  8
0
  6
Continuous
 62
     7
370
    15
100
AcDbCircle
 10
33.7680114344
 20
73.8218371756
 30
0.0
 40
0.2246784411559193
100
AcDbArc
 50
116.2991599906
 51
243.7008400094
  0
ARC
  5
2B8
330
1F
100
AcDbEntity
  8
0
  6
Continuous
 62
     7
370
    15
100
AcDbCircle
 10
43.7458786352
 20
73.8218365889
 30
0.0
 40
0.2246522087223604
100
AcDbArc
 50
116.1850942901
 51
243.8149057099
  0
ARC
  5
2B9
330
1F
100
AcDbEntity
  8
0
  6
Continuous
 62
     7
370
    15
100
AcDbCircle
 10
34.9180219718
 20
73.8168123381
 30
0.0
 40
0.2180326086078227
100
AcDbArc
 50
178.6794293177
 51
244.3657942732
  0
ARC
  5
2BA
330
1F
100
AcDbEntity
  8
0
  6
Continuous
 62
     7
370
    15
100
AcDbCircle
 10
34.9192055682
 20
73.8261349132
 30
0.0
 40
0.2192004311787702
100
AcDbArc
 50
115.8310415585
 51
181.123437608
  0
ARC
  5
2BB
330
1F
100
AcDbEntity
  8
0
  6
Continuous
 62
     7
370
    15
100
AcDbCircle
 10
33.7680114344
 20
39.6638361451
 30
0.0
 40
0.2246784411559224
100
AcDbArc
 50
116.2991599906
 51
243.7008400094
  0
LINE
  5
2BC
330
1F
100
AcDbEntity
  8
0
  6
Continuous
 62
     7
370
    15
100
AcDbLine
 10
48.3270397992
 20
38.0228369687
 30
0.0
 11
48.3270397992
 21
75.462836352
 31
0.0
  0
LINE
  5
2BD
330
1F
100
AcDbEntity
  8
0
  6
Continuous
 62
     7
370
    15
100
AcDbLine
 10
48.3270397992
 20
75.462836352
 30
0.0
 11
48.3262783147
 21
75.462836352
 31
0.0
  0
LINE
  5
2BE
330
1F
100
AcDbEntity
  8
0
  6
Continuous
 62
     7
370
    15
100
AcDbLine
 10
48.3262783147
 20
38.0228369687
 30
0.0
 11
48.3270397992
 21
38.0228369687
 31
0.0
  0
LINE
  5
2BF
330
1F
100
AcDbEntity
  8
0
  6
Continuous
 62
     7
370
    15
100
AcDbLine
 10
48.0184578707
 20
76.1928371989
 30
0.0
 11
48.0184578707
 21
75.462836352
 31
0.0
  0
LINE
  5
2C0
330
1F
100
AcDbEntity
  8
0
  6
Continuous
 62
     7
370
    15
100
AcDbLine
 10
48.3226914761
 20
76.1928371989
 30
0.0
 11
48.3226914761
 21
75.462836352
 31
0.0
  0
LINE
  5
2C1
330
1F
100
AcDbEntity
  8
0
  6
Continuous
 62
     7
370
    15
100
AcDbLine
 10
48.3226914761
 20
76.1928371989
 30
0.0
 11
48.0184578707
 21
76.1928371989
 31
0.0
  0
LINE
  5
2C2
330
1F
100
AcDbEntity
  8
0
  6
Continuous
 62
     7
370
    15
100
AcDbLine
 10
48.0414596316
 20
75.462836352
 30
0.0
 11
48.0184578707
 21
75.462836352
 31
0.0
  0
LINE
  5
2C3
330
1F
100
AcDbEntity
  8
0
  6
Continuous
 62
     7
370
    15
100
AcDbLine
 10
32.4328908898
 20
76.1928371989
 30
0.0
 11
32.4328908898
 21
75.462836352
 31
0.0
  0
LINE
  5
2C4
330
1F
100
AcDbEntity
  8
0
  6
Continuous
 62
     7
370
    15
100
AcDbLine
 10
48.0184578707
 20
76.1928371989
 30
0.0
 11
32.4328908898
 21
76.1928371989
 31
0.0
  0
LINE
  5
2C5
330
1F
100
AcDbEntity
  8
0
  6
Continuous
 62
     7
370
    15
100
AcDbLine
 10
48.0184578707
 20
75.462836352
 30
0.0
 11
32.4328908898
 21
75.462836352
 31
0.0
  0
LINE
  5
2C6
330
1F
100
AcDbEntity
  8
0
  6
Continuous
 62
     7
370
    15
100
AcDbLine
 10
48.0184578707
 20
37.2928361217
 30
0.0
 11
48.0184578707
 21
38.0228369687
 31
0.0
  0
LINE
  5
2C7
330
1F
100
AcDbEntity
  8
0
  6
Continuous
 62
     7
370
    15
100
AcDbLine
 10
32.4328908898
 20
37.2928361217
 30
0.0
 11
48.0184578707
 21
37.2928361217
 31
0.0
  0
LINE
  5
2C8
330
1F
100
AcDbEntity
  8
0
  6
Continuous
 62
     7
370
    15
100
AcDbLine
 10
32.4328908898
 20
37.2928361217
 30
0.0
 11
32.4328908898
 21
38.0228369687
 31
0.0
  0
LINE
  5
2C9
330
1F
100
AcDbEntity
  8
0
  6
Continuous
 62
     7
370
    15
100
AcDbLine
 10
32.4328908898
 20
38.0228369687
 30
0.0
 11
48.0184578707
 21
38.0228369687
 31
0.0
  0
LINE
  5
2CA
330
1F
100
AcDbEntity
  8
0
  6
Continuous
 62
     7
370
    15
100
AcDbLine
 10
48.3226914761
 20
37.2928361217
 30
0.0
 11
48.3226914761
 21
38.0228369687
 31
0.0
  0
LINE
  5
2CB
330
1F
100
AcDbEntity
  8
0
  6
Continuous
 62
     7
370
    15
100
AcDbLine
 10
48.0184578707
 20
37.2928361217
 30
0.0
 11
48.3226914761
 21
37.2928361217
 31
0.0
  0
LINE
  5
2CC
330
1F
100
AcDbEntity
  8
0
  6
Continuous
 62
     7
370
    15
100
AcDbLine
 10
48.0184578707
 20
38.0228369687
 30
0.0
 11
48.0414596316
 21
38.0228369687
 31
0.0
  0
CIRCLE
  5
2CD
330
1F
100
AcDbEntity
  8
0
  6
Continuous
 62
     7
370
    15
100
AcDbCircle
 10
91.9281509538
 20
60.3627925428
 30
0.0
 40
0.0825000000000173
  0
ARC
  5
2CE
330
1F
100
AcDbEntity
  8
0
  6
Continuous
 62
     7
370
    15
100
AcDbCircle
 10
95.4182540296
 20
60.4791292473
 30
0.0
 40
0.125
100
AcDbArc
 50
0.0
 51
90.0000000001
  0
LINE
  5
2CF
330
1F
100
AcDbEntity
  8
0
  6
Continuous
 62
     7
370
    15
100
AcDbLine
 10
95.5432540528
 20
57.444129283
 30
0.0
 11
95.5432540528
 21
60.4791291558
 31
0.0
  0
ARC
  5
2D0
330
1F
100
AcDbEntity
  8
0
  6
Continuous
 62
     7
370
    15
100
AcDbCircle
 10
95.4182540296
 20
57.4441292473
 30
0.0
 40
0.1250000000003268
100
AcDbArc
 50
270.0
 51
359.9999999996
  0
ARC
  5
2D1
330
1F
100
AcDbEntity
  8
0
  6
Continuous
 62
     7
370
    15
100
AcDbCircle
 10
91.7882540296
 20
57.4441292473
 30
0.0
 40
0.125
100
AcDbArc
 50
180.0
 51
269.9999999996
  0
LINE
  5
2D2
330
1F
100
AcDbEntity
  8
0
  6
Continuous
 62
     7
370
    15
100
AcDbLine
 10
92.0932540175
 20
57.8791292312
 30
0.0
 11
92.0932540175
 21
60.0441293542
 31
0.0
  0
ARC
  5
2D3
330
1F
100
AcDbEntity
  8
0
  6
Continuous
 62
     7
370
    15
100
AcDbCircle
 10
92.2182540296
 20
57.8791292473
 30
0.0
 40
0.1250000000000142
100
AcDbArc
 50
180.0
 51
270.0
  0
LINE
  5
2D4
330
1F
100
AcDbEntity
  8
0
  6
Continuous
 62
     7
370
    15
100
AcDbLine
 10
94.9882539976
 20
57.7541293152
 30
0.0
 11
92.2182540435
 21
57.7541293152
 31
0.0
  0
ARC
  5
2D5
330
1F
100
AcDbEntity
  8
0
  6
Continuous
 62
     7
370
    15
100
AcDbCircle
 10
94.9882540296
 20
57.8791292473
 30
0.0
 40
0.1250000000000142
100
AcDbArc
 50
270.0
 51
0.0
  0
LINE
  5
2D6
330
1F
100
AcDbEntity
  8
0
  6
Continuous
 62
     7
370
    15
100
AcDbLine
 10
95.1132540602
 20
57.8791292312
 30
0.0
 11
95.1132540602
 21
60.0441293542
 31
0.0
  0
ARC
  5
2D7
330
1F
100
AcDbEntity
  8
0
  6
Continuous
 62
     7
370
    15
100
AcDbCircle
 10
94.9882540296
 20
60.0441292473
 30
0.0
 40
0.1250000000000142
100
AcDbArc
 50
0.0
 51
90.0
  0
LINE
  5
2D8
330
1F
100
AcDbEntity
  8
0
  6
Continuous
 62
     7
370
    15
100
AcDbLine
 10
94.9882539976
 20
60.1691292702
 30
0.0
 11
92.2182540435
 21
60.1691292702
 31
0.0
  0
ARC
  5
2D9
330
1F
100
AcDbEntity
  8
0
  6
Continuous
 62
     7
370
    15
100
AcDbCircle
 10
91.7882540296
 20
60.4791292473
 30
0.0
 40
0.1250000000000071
100
AcDbArc
 50
90.0
 51
179.9999999995
  0
CIRCLE
  5
2DA
330
1F
100
AcDbEntity
  8
0
  6
Continuous
 62
     7
370
    15
100
AcDbCircle
 10
91.9281509538
 20
57.5604659518
 30
0.0
 40
0.0825000000000173
  0
CIRCLE
  5
2DB
330
1F
100
AcDbEntity
  8
0
  6
Continuous
 62
     7
370
    15
100
AcDbCircle
 10
95.2783571054
 20
60.3627925428
 30
0.0
 40
0.0825000000000173
  0
CIRCLE
  5
2DC
330
1F
100
AcDbEntity
  8
0
  6
Continuous
 62
     7
370
    15
100
AcDbCircle
 10
95.2783571054
 20
57.5604659518
 30
0.0
 40
0.0825000000000173
  0
LINE
  5
2DD
330
1F
100
AcDbEntity
  8
0
  6
Continuous
 62
     7
370
    15
100
AcDbLine
 10
91.7882540509
 20
57.3191292203
 30
0.0
 11
95.4182541369
 21
57.3191292203
 31
0.0
  0
LINE
  5
2DE
330
1F
100
AcDbEntity
  8
0
  6
Continuous
 62
     7
370
    15
100
AcDbLine
 10
95.4182541369
 20
60.6041293651
 30
0.0
 11
91.7882540509
 21
60.6041293651
 31
0.0
  0
ARC
  5
2DF
330
1F
100
AcDbEntity
  8
0
  6
Continuous
 62
     7
370
    15
100
AcDbCircle
 10
92.2182540296
 20
60.0441292473
 30
0.0
 40
0.125
100
AcDbArc
 50
90.0
 51
180.0
  0
LINE
  5
2E0
330
1F
100
AcDbEntity
  8
0
  6
Continuous
 62
     7
370
    15
100
AcDbLine
 10
91.6632540616
 20
60.4791291558
 30
0.0
 11
91.6632540616
 21
57.444129283
 31
0.0
  0
LINE
  5
2E1
330
1F
100
AcDbEntity
  8
0
  6
Continuous
 62
     7
370
    15
100
AcDbLine
 10
94.4782539825
 20
58.704129234
 30
0.0
 11
94.4782539825
 21
58.154129281
 31
0.0
  0
LINE
  5
2E2
330
1F
100
AcDbEntity
  8
0
  6
Continuous
 62
     7
370
    15
100
AcDbLine
 10
92.7282540311
 20
58.704129234
 30
0.0
 11
94.4782539825
 21
58.704129234
 31
0.0
  0
LINE
  5
2E3
330
1F
100
AcDbEntity
  8
0
  6
Continuous
 62
     7
370
    15
100
AcDbLine
 10
92.7282540311
 20
58.154129281
 30
0.0
 11
92.7282540311
 21
58.704129234
 31
0.0
  0
LINE
  5
2E4
330
1F
100
AcDbEntity
  8
0
  6
Continuous
 62
     7
370
    15
100
AcDbLine
 10
94.4782539825
 20
58.154129281
 30
0.0
 11
92.7282540311
 21
58.154129281
 31
0.0
  0
LINE
  5
2E5
330
1F
100
AcDbEntity
  8
0
  6
Continuous
 62
     7
370
    15
100
AcDbLine
 10
96.3005513045
 20
37.7764720588
 30
0.0
 11
96.3005513045
 21
75.216471442
 31
0.0
  0
LINE
  5
2E6
330
1F
100
AcDbEntity
  8
0
  6
Continuous
 62
     7
370
    15
100
AcDbLine
 10
96.9380801797
 20
75.216471442
 30
0.0
 11
96.9380801797
 21
37.7764720588
 31
0.0
  0
LINE
  5
2E7
330
1F
100
AcDbEntity
  8
0
  6
Continuous
 62
     7
370
    15
100
AcDbLine
 10
101.9757356909
 20
73.1254712775
 30
0.0
 11
101.4973814303
 21
73.1254712775
 31
0.0
  0
LWPOLYLINE
  5
2E8
330
1F
100
AcDbEntity
  8
0
  6
Continuous
 62
     7
370
    15
100
AcDbPolyline
 90
       14
 70
   128
 43
0.0
 10
102.0975045776
 20
73.8936695498
 10
102.1174598137
 20
73.8311010993
 10
102.1327716368
 20
73.7601574922
 10
102.1429390394
 20
73.6831642483
 10
102.1476287985
 20
73.6026416585
 10
102.1466877961
 20
73.5212308656
 10
102.1401459517
 20
73.4415953056
 10
102.1282179828
 20
73.3663467882
 10
102.1112946049
 20
73.2979481117
 10
102.0899302117
 20
73.2386414901
 10
102.0648252751
 20
73.1903699411
 10
102.0368011188
 20
73.1547139263
 10
102.006777039
 20
73.1328432456
 10
101.9757356909
 20
73.1254712775
  0
LINE
  5
2E9
330
1F
100
AcDbEntity
  8
0
  6
Continuous
 62
     7
370
    15
100
AcDbLine
 10
101.8583274472
 20
74.5186700098
 30
0.0
 11
102.0975045776
 21
73.8936695498
 31
0.0
  0
LWPOLYLINE
  5
2EA
330
1F
100
AcDbEntity
  8
0
  6
Continuous
 62
     7
370
    15
100
AcDbPolyline
 90
        9
 70
   128
 43
0.0
 10
101.6147896739
 20
74.5186700098
 10
101.6408848925
 20
74.57463267
 10
101.6706572952
 20
74.6162174696
 10
101.7029623087
 20
74.6418251737
 10
101.7365585606
 20
74.6504713672
 10
101.7701548125
 20
74.6418251737
 10
101.8024592393
 20
74.6162174696
 10
101.832231642
 20
74.57463267
 10
101.8583274472
 20
74.5186700098
  0
LINE
  5
2EB
330
1F
100
AcDbEntity
  8
0
  6
Continuous
 62
     7
370
    15
100
AcDbLine
 10
101.3756125436
 20
73.8936695498
 30
0.0
 11
101.6147896739
 21
74.5186700098
 31
0.0
  0
LWPOLYLINE
  5
2EC
330
1F
100
AcDbEntity
  8
0
  6
Continuous
 62
     7
370
    15
100
AcDbPolyline
 90
       14
 70
   128
 43
0.0
 10
101.4973814303
 20
73.1254712775
 10
101.4663400822
 20
73.1328432456
 10
101.4363160024
 20
73.1547139263
 10
101.4082918461
 20
73.1903699411
 10
101.3831869094
 20
73.2386414901
 10
101.3618225162
 20
73.2979481117
 10
101.3448991384
 20
73.3663467882
 10
101.3329711695
 20
73.4415953056
 10
101.3264293251
 20
73.5212308656
 10
101.325487736
 20
73.6026416585
 10
101.3301780818
 20
73.6831642483
 10
101.3403454843
 20
73.7601574922
 10
101.3556573075
 20
73.8311010993
 10
101.3756125436
 20
73.8936695498
  0
LINE
  5
2ED
330
1F
100
AcDbEntity
  8
0
  6
Continuous
 62
     7
370
    15
100
AcDbLine
 10
97.3644003481
 20
39.8674722234
 30
0.0
 11
97.8427543155
 21
39.8674722234
 31
0.0
  0
LWPOLYLINE
  5
2EE
330
1F
100
AcDbEntity
  8
0
  6
Continuous
 62
     7
370
    15
100
AcDbPolyline
 90
       14
 70
   128
 43
0.0
 10
97.2426311682
 20
39.099273951
 10
97.2226762253
 20
39.1618424015
 10
97.2073644022
 20
39.2327860087
 10
97.1971967064
 20
39.3097792526
 10
97.1925069472
 20
39.3903018423
 10
97.193448243
 20
39.4717138085
 10
97.1999900874
 20
39.5513481953
 10
97.2119180563
 20
39.6265967127
 10
97.2288414341
 20
39.6949953892
 10
97.250205534
 20
39.7543020107
 10
97.275310764
 20
39.8025735598
 10
97.3033346269
 20
39.8382295745
 10
97.3333590001
 20
39.8601002552
 10
97.3644003481
 20
39.8674722234
  0
LINE
  5
2EF
330
1F
100
AcDbEntity
  8
0
  6
Continuous
 62
     7
370
    15
100
AcDbLine
 10
97.4818082985
 20
38.4742734911
 30
0.0
 11
97.2426311682
 21
39.099273951
 31
0.0
  0
LWPOLYLINE
  5
2F0
330
1F
100
AcDbEntity
  8
0
  6
Continuous
 62
     7
370
    15
100
AcDbPolyline
 90
        9
 70
   128
 43
0.0
 10
97.7253466585
 20
38.4742734911
 10
97.6992508533
 20
38.4183108309
 10
97.6694784505
 20
38.3767260313
 10
97.637173437
 20
38.3511183271
 10
97.6035771851
 20
38.3424721336
 10
97.5699815199
 20
38.3511183271
 10
97.5376765064
 20
38.3767260313
 10
97.5079041037
 20
38.4183108309
 10
97.4818082985
 20
38.4742734911
  0
LINE
  5
2F1
330
1F
100
AcDbEntity
  8
0
  6
Continuous
 62
     7
370
    15
100
AcDbLine
 10
97.9645237888
 20
39.099273951
 30
0.0
 11
97.7253466585
 21
38.4742734911
 31
0.0
  0
LWPOLYLINE
  5
2F2
330
1F
100
AcDbEntity
  8
0
  6
Continuous
 62
     7
370
    15
100
AcDbPolyline
 90
       14
 70
   128
 43
0.0
 10
97.8427543155
 20
39.8674722234
 10
97.8737956636
 20
39.8601002552
 10
97.90382033
 20
39.8382295745
 10
97.9318438997
 20
39.8025735598
 10
97.956949423
 20
39.7543020107
 10
97.9783138162
 20
39.6949953892
 10
97.9952366073
 20
39.6265967127
 10
98.0071645762
 20
39.5513481953
 10
98.0137064206
 20
39.4717138085
 10
98.0146480098
 20
39.3903018423
 10
98.0099582506
 20
39.3097792526
 10
97.9997908481
 20
39.2327860087
 10
97.9844784383
 20
39.1618424015
 10
97.9645237888
 20
39.099273951
  0
LINE
  5
2F3
330
1F
100
AcDbEntity
  8
0
  6
Continuous
 62
     7
370
    15
100
AcDbLine
 10
103.403527997
 20
75.216471442
 30
0.0
 11
103.403527997
 21
37.7764720588
 31
0.0
  0
LINE
  5
2F4
330
1F
100
AcDbEntity
  8
0
  6
Continuous
 62
     7
370
    15
100
AcDbLine
 10
101.4973814303
 20
39.8674722234
 30
0.0
 11
101.9757356909
 21
39.8674722234
 31
0.0
  0
LWPOLYLINE
  5
2F5
330
1F
100
AcDbEntity
  8
0
  6
Continuous
 62
     7
370
    15
100
AcDbPolyline
 90
       14
 70
   128
 43
0.0
 10
101.3756125436
 20
39.099273951
 10
101.3556573075
 20
39.1618424015
 10
101.3403454843
 20
39.2327860087
 10
101.3301780818
 20
39.3097792526
 10
101.325487736
 20
39.3903018423
 10
101.3264293251
 20
39.4717138085
 10
101.3329711695
 20
39.5513481953
 10
101.3448991384
 20
39.6265967127
 10
101.3618225162
 20
39.6949953892
 10
101.3831869094
 20
39.7543020107
 10
101.4082918461
 20
39.8025735598
 10
101.4363160024
 20
39.8382295745
 10
101.4663400822
 20
39.8601002552
 10
101.4973814303
 20
39.8674722234
  0
LINE
  5
2F6
330
1F
100
AcDbEntity
  8
0
  6
Continuous
 62
     7
370
    15
100
AcDbLine
 10
101.6147896739
 20
38.4742734911
 30
0.0
 11
101.3756125436
 21
39.099273951
 31
0.0
  0
LWPOLYLINE
  5
2F7
330
1F
100
AcDbEntity
  8
0
  6
Continuous
 62
     7
370
    15
100
AcDbPolyline
 90
        9
 70
   128
 43
0.0
 10
101.8583274472
 20
38.4742734911
 10
101.832231642
 20
38.4183108309
 10
101.8024592393
 20
38.3767260313
 10
101.7701548125
 20
38.3511183271
 10
101.7365585606
 20
38.3424721336
 10
101.7029623087
 20
38.3511183271
 10
101.6706572952
 20
38.3767260313
 10
101.6408848925
 20
38.4183108309
 10
101.6147896739
 20
38.4742734911
  0
LINE
  5
2F8
330
1F
100
AcDbEntity
  8
0
  6
Continuous
 62
     7
370
    15
100
AcDbLine
 10
102.0975045776
 20
39.099273951
 30
0.0
 11
101.8583274472
 21
38.4742734911
 31
0.0
  0
LWPOLYLINE
  5
2F9
330
1F
100
AcDbEntity
  8
0
  6
Continuous
 62
     7
370
    15
100
AcDbPolyline
 90
       14
 70
   128
 43
0.0
 10
101.9757356909
 20
39.8674722234
 10
102.006777039
 20
39.8601002552
 10
102.0368011188
 20
39.8382295745
 10
102.0648252751
 20
39.8025735598
 10
102.0899302117
 20
39.7543020107
 10
102.1112946049
 20
39.6949953892
 10
102.1282179828
 20
39.6265967127
 10
102.1401459517
 20
39.5513481953
 10
102.1466877961
 20
39.4717138085
 10
102.1476287985
 20
39.3903018423
 10
102.1429390394
 20
39.3097792526
 10
102.1327716368
 20
39.2327860087
 10
102.1174598137
 20
39.1618424015
 10
102.0975045776
 20
39.099273951
  0
LINE
  5
2FA
330
1F
100
AcDbEntity
  8
0
  6
Continuous
 62
     7
370
    15
100
AcDbLine
 10
97.8427543155
 20
73.1254712775
 30
0.0
 11
97.3644003481
 21
73.1254712775
 31
0.0
  0
LWPOLYLINE
  5
2FB
330
1F
100
AcDbEntity
  8
0
  6
Continuous
 62
     7
370
    15
100
AcDbPolyline
 90
       14
 70
   128
 43
0.0
 10
97.9645237888
 20
73.8936695498
 10
97.9844784383
 20
73.8311010993
 10
97.9997908481
 20
73.7601574922
 10
98.0099582506
 20
73.6831642483
 10
98.0146480098
 20
73.6026416585
 10
98.0137064206
 20
73.5212308656
 10
98.0071645762
 20
73.4415953056
 10
97.9952366073
 20
73.3663467882
 10
97.9783138162
 20
73.2979481117
 10
97.956949423
 20
73.2386414901
 10
97.9318438997
 20
73.1903699411
 10
97.90382033
 20
73.1547139263
 10
97.8737956636
 20
73.1328432456
 10
97.8427543155
 20
73.1254712775
  0
LINE
  5
2FC
330
1F
100
AcDbEntity
  8
0
  6
Continuous
 62
     7
370
    15
100
AcDbLine
 10
97.7253466585
 20
74.5186700098
 30
0.0
 11
97.9645237888
 21
73.8936695498
 31
0.0
  0
LWPOLYLINE
  5
2FD
330
1F
100
AcDbEntity
  8
0
  6
Continuous
 62
     7
370
    15
100
AcDbPolyline
 90
        9
 70
   128
 43
0.0
 10
97.4818082985
 20
74.5186700098
 10
97.5079041037
 20
74.57463267
 10
97.5376765064
 20
74.6162174696
 10
97.5699815199
 20
74.6418251737
 10
97.6035771851
 20
74.6504713672
 10
97.637173437
 20
74.6418251737
 10
97.6694784505
 20
74.6162174696
 10
97.6992508533
 20
74.57463267
 10
97.7253466585
 20
74.5186700098
  0
LINE
  5
2FE
330
1F
100
AcDbEntity
  8
0
  6
Continuous
 62
     7
370
    15
100
AcDbLine
 10
97.2426311682
 20
73.8936695498
 30
0.0
 11
97.4818082985
 21
74.5186700098
 31
0.0
  0
LWPOLYLINE
  5
2FF
330
1F
100
AcDbEntity
  8
0
  6
Continuous
 62
     7
370
    15
100
AcDbPolyline
 90
       14
 70
   128
 43
0.0
 10
97.3644003481
 20
73.1254712775
 10
97.3333590001
 20
73.1328432456
 10
97.3033346269
 20
73.1547139263
 10
97.275310764
 20
73.1903699411
 10
97.250205534
 20
73.2386414901
 10
97.2288414341
 20
73.2979481117
 10
97.2119180563
 20
73.3663467882
 10
97.1999900874
 20
73.4415953056
 10
97.193448243
 20
73.5212308656
 10
97.1925069472
 20
73.6026416585
 10
97.1971967064
 20
73.6831642483
 10
97.2073644022
 20
73.7601574922
 10
97.2226762253
 20
73.8311010993
 10
97.2426311682
 20
73.8936695498
  0
LWPOLYLINE
  5
300
330
1F
100
AcDbEntity
  8
0
  6
Continuous
 62
     7
370
    15
100
AcDbPolyline
 90
        9
 70
   128
 43
0.0
 10
97.39164806
 20
38.7924719485
 10
97.3887957197
 20
38.8490881478
 10
97.3804325896
 20
38.9018464717
 10
97.3671291966
 20
38.9471518683
 10
97.3497919302
 20
38.9819149867
 10
97.3296023235
 20
39.0037680676
 10
97.3079360938
 20
39.0112221682
 10
97.286269864
 20
39.0037680676
 10
97.2808353402
 20
38.9994420376
  0
LWPOLYLINE
  5
301
330
1F
100
AcDbEntity
  8
0
  6
Continuous
 62
     7
370
    15
100
AcDbPolyline
 90
        3
 70
   128
 43
0.0
 10
97.3871398721
 20
38.7216538866
 10
97.3887957197
 20
38.7358545759
 10
97.39164806
 20
38.7924719485
  0
LWPOLYLINE
  5
302
330
1F
100
AcDbEntity
  8
0
  6
Continuous
 62
     7
370
    15
100
AcDbPolyline
 90
       25
 70
   128
 43
0.0
 10
97.6308251904
 20
39.4174712352
 10
97.62797285
 20
39.4740886078
 10
97.6196100133
 20
39.5268469316
 10
97.606306327
 20
39.5721511549
 10
97.5889693539
 20
39.6069142734
 10
97.5687794538
 20
39.6287685276
 10
97.5471129308
 20
39.6362214548
 10
97.5254469944
 20
39.6287685276
 10
97.5052570943
 20
39.6069142734
 10
97.4879198279
 20
39.5721511549
 10
97.4746164349
 20
39.5268469316
 10
97.4662535982
 20
39.4740886078
 10
97.4634012578
 20
39.4174712352
 10
97.4662535982
 20
39.3608550359
 10
97.4746164349
 20
39.308096712
 10
97.4879198279
 20
39.2627924887
 10
97.5052570943
 20
39.2280281969
 10
97.5254469944
 20
39.2061751161
 10
97.5471129308
 20
39.1987221888
 10
97.5687794538
 20
39.2061751161
 10
97.5889693539
 20
39.2280281969
 10
97.606306327
 20
39.2627924887
 10
97.6196100133
 20
39.308096712
 10
97.62797285
 20
39.3608550359
 10
97.6308251904
 20
39.4174712352
  0
LINE
  5
303
330
1F
100
AcDbEntity
  8
0
  6
Continuous
 62
     7
370
    15
100
AcDbLine
 10
97.6688824041
 20
39.099273951
 30
0.0
 11
97.4557567861
 21
38.5423495046
 31
0.0
  0
LWPOLYLINE
  5
304
330
1F
100
AcDbEntity
  8
0
  6
Continuous
 62
     7
370
    15
100
AcDbPolyline
 90
       14
 70
   128
 43
0.0
 10
97.5471129308
 20
39.8674722234
 10
97.5781542788
 20
39.8601002552
 10
97.6081789453
 20
39.8382295745
 10
97.6362025149
 20
39.8025735598
 10
97.6613080382
 20
39.7543020107
 10
97.6826718448
 20
39.6949953892
 10
97.6995952226
 20
39.6265967127
 10
97.7115231915
 20
39.5513481953
 10
97.7180650359
 20
39.4717138085
 10
97.719006625
 20
39.3903018423
 10
97.7143168659
 20
39.3097792526
 10
97.7041494633
 20
39.2327860087
 10
97.6888370536
 20
39.1618424015
 10
97.6688824041
 20
39.099273951
  0
LINE
  5
305
330
1F
100
AcDbEntity
  8
0
  6
Continuous
 62
     7
370
    15
100
AcDbLine
 10
97.4557567861
 20
74.4505939962
 30
0.0
 11
97.6688824041
 21
73.8936695498
 31
0.0
  0
LWPOLYLINE
  5
306
330
1F
100
AcDbEntity
  8
0
  6
Continuous
 62
     7
370
    15
100
AcDbPolyline
 90
       14
 70
   128
 43
0.0
 10
97.6688824041
 20
73.8936695498
 10
97.6888370536
 20
73.8311010993
 10
97.7041494633
 20
73.7601574922
 10
97.7143168659
 20
73.6831642483
 10
97.719006625
 20
73.6026416585
 10
97.7180650359
 20
73.5212308656
 10
97.7115231915
 20
73.4415953056
 10
97.6995952226
 20
73.3663467882
 10
97.6826718448
 20
73.2979481117
 10
97.6613080382
 20
73.2386414901
 10
97.6362025149
 20
73.1903699411
 10
97.6081789453
 20
73.1547139263
 10
97.5781542788
 20
73.1328432456
 10
97.5471129308
 20
73.1254712775
  0
LWPOLYLINE
  5
307
330
1F
100
AcDbEntity
  8
0
  6
Continuous
 62
     7
370
    15
100
AcDbPolyline
 90
       25
 70
   128
 43
0.0
 10
97.4634012578
 20
73.5754722657
 10
97.4662535982
 20
73.5188548931
 10
97.4746164349
 20
73.4660965692
 10
97.4879198279
 20
73.4207923459
 10
97.5052570943
 20
73.3860292275
 10
97.5254469944
 20
73.3641749733
 10
97.5471129308
 20
73.356722046
 10
97.5687794538
 20
73.3641749733
 10
97.5889693539
 20
73.3860292275
 10
97.606306327
 20
73.4207923459
 10
97.6196100133
 20
73.4660965692
 10
97.62797285
 20
73.5188548931
 10
97.6308251904
 20
73.5754722657
 10
97.62797285
 20
73.632088465
 10
97.6196100133
 20
73.6848467888
 10
97.606306327
 20
73.7301510121
 10
97.5889693539
 20
73.7649153039
 10
97.5687794538
 20
73.7867683848
 10
97.5471129308
 20
73.794221312
 10
97.5254469944
 20
73.7867683848
 10
97.5052570943
 20
73.7649153039
 10
97.4879198279
 20
73.7301510121
 10
97.4746164349
 20
73.6848467888
 10
97.4662535982
 20
73.632088465
 10
97.4634012578
 20
73.5754722657
  0
LWPOLYLINE
  5
308
330
1F
100
AcDbEntity
  8
0
  6
Continuous
 62
     7
370
    15
100
AcDbPolyline
 90
       11
 70
   128
 43
0.0
 10
97.2808353402
 20
73.9935026366
 10
97.286269864
 20
73.9891754332
 10
97.3079360938
 20
73.9817213327
 10
97.3296023235
 20
73.9891754332
 10
97.3497919302
 20
74.0110285141
 10
97.3671291966
 20
74.0457916325
 10
97.3804325896
 20
74.0910970291
 10
97.3887957197
 20
74.143855353
 10
97.39164806
 20
74.2004715523
 10
97.3887957197
 20
74.2570889249
 10
97.3871398721
 20
74.2712896142
  0
LINE
  5
309
330
1F
100
AcDbEntity
  8
0
  6
Continuous
 62
     7
370
    15
100
AcDbLine
 10
97.6688824041
 20
39.099273951
 30
0.0
 11
97.9645237888
 21
39.099273951
 31
0.0
  0
LINE
  5
30A
330
1F
100
AcDbEntity
  8
0
  6
Continuous
 62
     7
370
    15
100
AcDbLine
 10
97.6688824041
 20
73.8936695498
 30
0.0
 11
97.9645237888
 21
73.8936695498
 31
0.0
  0
LWPOLYLINE
  5
30B
330
1F
100
AcDbEntity
  8
0
  6
Continuous
 62
     7
370
    15
100
AcDbPolyline
 90
        9
 70
   128
 43
0.0
 10
101.5246288488
 20
38.7924719485
 10
101.5217765084
 20
38.8490881478
 10
101.5134136717
 20
38.9018464717
 10
101.5001105721
 20
38.9471518683
 10
101.4827730123
 20
38.9819149867
 10
101.4625831123
 20
39.0037680676
 10
101.4409171759
 20
39.0112221682
 10
101.4192506528
 20
39.0037680676
 10
101.4138164223
 20
38.9994420376
  0
LWPOLYLINE
  5
30C
330
1F
100
AcDbEntity
  8
0
  6
Continuous
 62
     7
370
    15
100
AcDbPolyline
 90
        3
 70
   128
 43
0.0
 10
101.5201209542
 20
38.7216538866
 10
101.5217765084
 20
38.7358545759
 10
101.5246288488
 20
38.7924719485
  0
LWPOLYLINE
  5
30D
330
1F
100
AcDbEntity
  8
0
  6
Continuous
 62
     7
370
    15
100
AcDbPolyline
 90
       25
 70
   128
 43
0.0
 10
101.7638059792
 20
39.4174712352
 10
101.7609536388
 20
39.4740886078
 10
101.7525908021
 20
39.5268469316
 10
101.7392877024
 20
39.5721511549
 10
101.7219501427
 20
39.6069142734
 10
101.7017602426
 20
39.6287685276
 10
101.6800943062
 20
39.6362214548
 10
101.6584277832
 20
39.6287685276
 10
101.6382384697
 20
39.6069142734
 10
101.62090091
 20
39.5721511549
 10
101.6075972237
 20
39.5268469316
 10
101.599234387
 20
39.4740886078
 10
101.5963820466
 20
39.4174712352
 10
101.599234387
 20
39.3608550359
 10
101.6075972237
 20
39.308096712
 10
101.62090091
 20
39.2627924887
 10
101.6382384697
 20
39.2280281969
 10
101.6584277832
 20
39.2061751161
 10
101.6800943062
 20
39.1987221888
 10
101.7017602426
 20
39.2061751161
 10
101.7219501427
 20
39.2280281969
 10
101.7392877024
 20
39.2627924887
 10
101.7525908021
 20
39.308096712
 10
101.7609536388
 20
39.3608550359
 10
101.7638059792
 20
39.4174712352
  0
LINE
  5
30E
330
1F
100
AcDbEntity
  8
0
  6
Continuous
 62
     7
370
    15
100
AcDbLine
 10
101.8018631929
 20
39.099273951
 30
0.0
 11
101.5887378682
 21
38.5423495046
 31
0.0
  0
LWPOLYLINE
  5
30F
330
1F
100
AcDbEntity
  8
0
  6
Continuous
 62
     7
370
    15
100
AcDbPolyline
 90
       14
 70
   128
 43
0.0
 10
101.6800943062
 20
39.8674722234
 10
101.7111356543
 20
39.8601002552
 10
101.7411597341
 20
39.8382295745
 10
101.7691838904
 20
39.8025735598
 10
101.794288827
 20
39.7543020107
 10
101.8156532202
 20
39.6949953892
 10
101.8325765981
 20
39.6265967127
 10
101.8445045669
 20
39.5513481953
 10
101.8510464114
 20
39.4717138085
 10
101.8519874138
 20
39.3903018423
 10
101.8472976547
 20
39.3097792526
 10
101.8371302521
 20
39.2327860087
 10
101.821818429
 20
39.1618424015
 10
101.8018631929
 20
39.099273951
  0
LINE
  5
310
330
1F
100
AcDbEntity
  8
0
  6
Continuous
 62
     7
370
    15
100
AcDbLine
 10
101.5887378682
 20
74.4505939962
 30
0.0
 11
101.8018631929
 21
73.8936695498
 31
0.0
  0
LWPOLYLINE
  5
311
330
1F
100
AcDbEntity
  8
0
  6
Continuous
 62
     7
370
    15
100
AcDbPolyline
 90
       14
 70
   128
 43
0.0
 10
101.8018631929
 20
73.8936695498
 10
101.821818429
 20
73.8311010993
 10
101.8371302521
 20
73.7601574922
 10
101.8472976547
 20
73.6831642483
 10
101.8519874138
 20
73.6026416585
 10
101.8510464114
 20
73.5212308656
 10
101.8445045669
 20
73.4415953056
 10
101.8325765981
 20
73.3663467882
 10
101.8156532202
 20
73.2979481117
 10
101.794288827
 20
73.2386414901
 10
101.7691838904
 20
73.1903699411
 10
101.7411597341
 20
73.1547139263
 10
101.7111356543
 20
73.1328432456
 10
101.6800943062
 20
73.1254712775
  0
LWPOLYLINE
  5
312
330
1F
100
AcDbEntity
  8
0
  6
Continuous
 62
     7
370
    15
100
AcDbPolyline
 90
       25
 70
   128
 43
0.0
 10
101.5963820466
 20
73.5754722657
 10
101.599234387
 20
73.5188548931
 10
101.6075972237
 20
73.4660965692
 10
101.62090091
 20
73.4207923459
 10
101.6382384697
 20
73.3860292275
 10
101.6584277832
 20
73.3641749733
 10
101.6800943062
 20
73.356722046
 10
101.7017602426
 20
73.3641749733
 10
101.7219501427
 20
73.3860292275
 10
101.7392877024
 20
73.4207923459
 10
101.7525908021
 20
73.4660965692
 10
101.7609536388
 20
73.5188548931
 10
101.7638059792
 20
73.5754722657
 10
101.7609536388
 20
73.632088465
 10
101.7525908021
 20
73.6848467888
 10
101.7392877024
 20
73.7301510121
 10
101.7219501427
 20
73.7649153039
 10
101.7017602426
 20
73.7867683848
 10
101.6800943062
 20
73.794221312
 10
101.6584277832
 20
73.7867683848
 10
101.6382384697
 20
73.7649153039
 10
101.62090091
 20
73.7301510121
 10
101.6075972237
 20
73.6848467888
 10
101.599234387
 20
73.632088465
 10
101.5963820466
 20
73.5754722657
  0
LWPOLYLINE
  5
313
330
1F
100
AcDbEntity
  8
0
  6
Continuous
 62
     7
370
    15
100
AcDbPolyline
 90
       11
 70
   128
 43
0.0
 10
101.4138164223
 20
73.9935026366
 10
101.4192506528
 20
73.9891754332
 10
101.4409171759
 20
73.9817213327
 10
101.4625831123
 20
73.9891754332
 10
101.4827730123
 20
74.0110285141
 10
101.5001105721
 20
74.0457916325
 10
101.5134136717
 20
74.0910970291
 10
101.5217765084
 20
74.143855353
 10
101.5246288488
 20
74.2004715523
 10
101.5217765084
 20
74.2570889249
 10
101.5201209542
 20
74.2712896142
  0
LINE
  5
314
330
1F
100
AcDbEntity
  8
0
  6
Continuous
 62
     7
370
    15
100
AcDbLine
 10
101.8018631929
 20
39.099273951
 30
0.0
 11
102.0975045776
 21
39.099273951
 31
0.0
  0
LINE
  5
315
330
1F
100
AcDbEntity
  8
0
  6
Continuous
 62
     7
370
    15
100
AcDbLine
 10
101.8018631929
 20
73.8936695498
 30
0.0
 11
102.0975045776
 21
73.8936695498
 31
0.0
  0
LINE
  5
316
330
1F
100
AcDbEntity
  8
0
  6
Continuous
 62
     7
370
    15
100
AcDbLine
 10
90.9147269353
 20
75.216471442
 30
0.0
 11
90.9147269353
 21
37.7764720588
 31
0.0
  0
LINE
  5
317
330
1F
100
AcDbEntity
  8
0
  6
Continuous
 62
     7
370
    15
100
AcDbLine
 10
90.2771979134
 20
37.7764720588
 30
0.0
 11
90.2771979134
 21
75.216471442
 31
0.0
  0
LINE
  5
318
330
1F
100
AcDbEntity
  8
0
  6
Continuous
 62
     7
370
    15
100
AcDbLine
 10
83.8117505362
 20
37.7764720588
 30
0.0
 11
83.8117505362
 21
75.216471442
 31
0.0
  0
LWPOLYLINE
  5
319
330
1F
100
AcDbEntity
  8
0
  6
Continuous
 62
     7
370
    15
100
AcDbPolyline
 90
        9
 70
   128
 43
0.0
 10
89.4899315813
 20
74.5186700098
 10
89.5160273865
 20
74.57463267
 10
89.5457997893
 20
74.6162174696
 10
89.5781048028
 20
74.6418251737
 10
89.6117007613
 20
74.6504713672
 10
89.6452967199
 20
74.6418251737
 10
89.6776017334
 20
74.6162174696
 10
89.7073741361
 20
74.57463267
 10
89.7334699413
 20
74.5186700098
  0
LINE
  5
31A
330
1F
100
AcDbEntity
  8
0
  6
Continuous
 62
     7
370
    15
100
AcDbLine
 10
89.250754451
 20
73.8936695498
 30
0.0
 11
89.4899315813
 21
74.5186700098
 31
0.0
  0
LWPOLYLINE
  5
31B
330
1F
100
AcDbEntity
  8
0
  6
Continuous
 62
     7
370
    15
100
AcDbPolyline
 90
       14
 70
   128
 43
0.0
 10
89.372523631
 20
73.1254712775
 10
89.3414822829
 20
73.1328432456
 10
89.3114579098
 20
73.1547139263
 10
89.2834340468
 20
73.1903699411
 10
89.2583288168
 20
73.2386414901
 10
89.236964717
 20
73.2979481117
 10
89.2200413391
 20
73.3663467882
 10
89.2081133703
 20
73.4415953056
 10
89.2015715258
 20
73.5212308656
 10
89.20063023
 20
73.6026416585
 10
89.2053199892
 20
73.6831642483
 10
89.2154873917
 20
73.7601574922
 10
89.2307995082
 20
73.8311010993
 10
89.250754451
 20
73.8936695498
  0
LINE
  5
31C
330
1F
100
AcDbEntity
  8
0
  6
Continuous
 62
     7
370
    15
100
AcDbLine
 10
89.8508778917
 20
73.1254712775
 30
0.0
 11
89.372523631
 21
73.1254712775
 31
0.0
  0
LWPOLYLINE
  5
31D
330
1F
100
AcDbEntity
  8
0
  6
Continuous
 62
     7
370
    15
100
AcDbPolyline
 90
       14
 70
   128
 43
0.0
 10
89.9726470716
 20
73.8936695498
 10
89.9926020145
 20
73.8311010993
 10
90.0079138376
 20
73.7601574922
 10
90.0180812401
 20
73.6831642483
 10
90.0227712926
 20
73.6026416585
 10
90.0218297035
 20
73.5212308656
 10
90.015287859
 20
73.4415953056
 10
90.0033601835
 20
73.3663467882
 10
89.9864368057
 20
73.2979481117
 10
89.9650727058
 20
73.2386414901
 10
89.9399671825
 20
73.1903699411
 10
89.9119436129
 20
73.1547139263
 10
89.8819192397
 20
73.1328432456
 10
89.8508778917
 20
73.1254712775
  0
LINE
  5
31E
330
1F
100
AcDbEntity
  8
0
  6
Continuous
 62
     7
370
    15
100
AcDbLine
 10
89.7334699413
 20
74.5186700098
 30
0.0
 11
89.9726470716
 21
73.8936695498
 31
0.0
  0
LWPOLYLINE
  5
31F
330
1F
100
AcDbEntity
  8
0
  6
Continuous
 62
     7
370
    15
100
AcDbPolyline
 90
        9
 70
   128
 43
0.0
 10
85.3569504992
 20
74.5186700098
 10
85.3830463044
 20
74.57463267
 10
85.4128187072
 20
74.6162174696
 10
85.4451237206
 20
74.6418251737
 10
85.4787193859
 20
74.6504713672
 10
85.5123156378
 20
74.6418251737
 10
85.5446206512
 20
74.6162174696
 10
85.574393054
 20
74.57463267
 10
85.6004888592
 20
74.5186700098
  0
LINE
  5
320
330
1F
100
AcDbEntity
  8
0
  6
Continuous
 62
     7
370
    15
100
AcDbLine
 10
85.1177733689
 20
73.8936695498
 30
0.0
 11
85.3569504992
 21
74.5186700098
 31
0.0
  0
LWPOLYLINE
  5
321
330
1F
100
AcDbEntity
  8
0
  6
Continuous
 62
     7
370
    15
100
AcDbPolyline
 90
       14
 70
   128
 43
0.0
 10
85.2395422555
 20
73.1254712775
 10
85.2085014941
 20
73.1328432456
 10
85.1784768276
 20
73.1547139263
 10
85.150453258
 20
73.1903699411
 10
85.1253477347
 20
73.2386414901
 10
85.1039833415
 20
73.2979481117
 10
85.0870605504
 20
73.3663467882
 10
85.0751325815
 20
73.4415953056
 10
85.068590737
 20
73.5212308656
 10
85.0676491479
 20
73.6026416585
 10
85.0723389071
 20
73.6831642483
 10
85.0825063096
 20
73.7601574922
 10
85.0978187194
 20
73.8311010993
 10
85.1177733689
 20
73.8936695498
  0
LINE
  5
322
330
1F
100
AcDbEntity
  8
0
  6
Continuous
 62
     7
370
    15
100
AcDbLine
 10
85.7178965162
 20
73.1254712775
 30
0.0
 11
85.2395422555
 21
73.1254712775
 31
0.0
  0
LWPOLYLINE
  5
323
330
1F
100
AcDbEntity
  8
0
  6
Continuous
 62
     7
370
    15
100
AcDbPolyline
 90
       14
 70
   128
 43
0.0
 10
85.8396659895
 20
73.8936695498
 10
85.859620639
 20
73.8311010993
 10
85.8749330488
 20
73.7601574922
 10
85.8851004513
 20
73.6831642483
 10
85.8897902105
 20
73.6026416585
 10
85.8888486214
 20
73.5212308656
 10
85.8823067769
 20
73.4415953056
 10
85.8703788081
 20
73.3663467882
 10
85.8534554302
 20
73.2979481117
 10
85.8320916237
 20
73.2386414901
 10
85.8069861004
 20
73.1903699411
 10
85.7789625308
 20
73.1547139263
 10
85.7489378643
 20
73.1328432456
 10
85.7178965162
 20
73.1254712775
  0
LINE
  5
324
330
1F
100
AcDbEntity
  8
0
  6
Continuous
 62
     7
370
    15
100
AcDbLine
 10
85.6004888592
 20
74.5186700098
 30
0.0
 11
85.8396659895
 21
73.8936695498
 31
0.0
  0
LWPOLYLINE
  5
325
330
1F
100
AcDbEntity
  8
0
  6
Continuous
 62
     7
370
    15
100
AcDbPolyline
 90
        9
 70
   128
 43
0.0
 10
85.6004888592
 20
38.4742734911
 10
85.574393054
 20
38.4183108309
 10
85.5446206512
 20
38.3767260313
 10
85.5123156378
 20
38.3511183271
 10
85.4787193859
 20
38.3424721336
 10
85.4451237206
 20
38.3511183271
 10
85.4128187072
 20
38.3767260313
 10
85.3830463044
 20
38.4183108309
 10
85.3569504992
 20
38.4742734911
  0
LINE
  5
326
330
1F
100
AcDbEntity
  8
0
  6
Continuous
 62
     7
370
    15
100
AcDbLine
 10
85.8396659895
 20
39.099273951
 30
0.0
 11
85.6004888592
 21
38.4742734911
 31
0.0
  0
LWPOLYLINE
  5
327
330
1F
100
AcDbEntity
  8
0
  6
Continuous
 62
     7
370
    15
100
AcDbPolyline
 90
       14
 70
   128
 43
0.0
 10
85.7178965162
 20
39.8674722234
 10
85.7489378643
 20
39.8601002552
 10
85.7789625308
 20
39.8382295745
 10
85.8069861004
 20
39.8025735598
 10
85.8320916237
 20
39.7543020107
 10
85.8534554302
 20
39.6949953892
 10
85.8703788081
 20
39.6265967127
 10
85.8823067769
 20
39.5513481953
 10
85.8888486214
 20
39.4717138085
 10
85.8897902105
 20
39.3903018423
 10
85.8851004513
 20
39.3097792526
 10
85.8749330488
 20
39.2327860087
 10
85.859620639
 20
39.1618424015
 10
85.8396659895
 20
39.099273951
  0
LINE
  5
328
330
1F
100
AcDbEntity
  8
0
  6
Continuous
 62
     7
370
    15
100
AcDbLine
 10
85.2395422555
 20
39.8674722234
 30
0.0
 11
85.7178965162
 21
39.8674722234
 31
0.0
  0
LWPOLYLINE
  5
329
330
1F
100
AcDbEntity
  8
0
  6
Continuous
 62
     7
370
    15
100
AcDbPolyline
 90
       14
 70
   128
 43
0.0
 10
85.1177733689
 20
39.099273951
 10
85.0978187194
 20
39.1618424015
 10
85.0825063096
 20
39.2327860087
 10
85.0723389071
 20
39.3097792526
 10
85.0676491479
 20
39.3903018423
 10
85.068590737
 20
39.4717138085
 10
85.0751325815
 20
39.5513481953
 10
85.0870605504
 20
39.6265967127
 10
85.1039833415
 20
39.6949953892
 10
85.1253477347
 20
39.7543020107
 10
85.150453258
 20
39.8025735598
 10
85.1784768276
 20
39.8382295745
 10
85.2085014941
 20
39.8601002552
 10
85.2395422555
 20
39.8674722234
  0
LINE
  5
32A
330
1F
100
AcDbEntity
  8
0
  6
Continuous
 62
     7
370
    15
100
AcDbLine
 10
85.3569504992
 20
38.4742734911
 30
0.0
 11
85.1177733689
 21
39.099273951
 31
0.0
  0
LWPOLYLINE
  5
32B
330
1F
100
AcDbEntity
  8
0
  6
Continuous
 62
     7
370
    15
100
AcDbPolyline
 90
        9
 70
   128
 43
0.0
 10
89.7334699413
 20
38.4742734911
 10
89.7073741361
 20
38.4183108309
 10
89.6776017334
 20
38.3767260313
 10
89.6452967199
 20
38.3511183271
 10
89.6117007613
 20
38.3424721336
 10
89.5781048028
 20
38.3511183271
 10
89.5457997893
 20
38.3767260313
 10
89.5160273865
 20
38.4183108309
 10
89.4899315813
 20
38.4742734911
  0
LINE
  5
32C
330
1F
100
AcDbEntity
  8
0
  6
Continuous
 62
     7
370
    15
100
AcDbLine
 10
89.9726470716
 20
39.099273951
 30
0.0
 11
89.7334699413
 21
38.4742734911
 31
0.0
  0
LWPOLYLINE
  5
32D
330
1F
100
AcDbEntity
  8
0
  6
Continuous
 62
     7
370
    15
100
AcDbPolyline
 90
       14
 70
   128
 43
0.0
 10
89.8508778917
 20
39.8674722234
 10
89.8819192397
 20
39.8601002552
 10
89.9119436129
 20
39.8382295745
 10
89.9399671825
 20
39.8025735598
 10
89.9650727058
 20
39.7543020107
 10
89.9864368057
 20
39.6949953892
 10
90.0033601835
 20
39.6265967127
 10
90.015287859
 20
39.5513481953
 10
90.0218297035
 20
39.4717138085
 10
90.0227712926
 20
39.3903018423
 10
90.0180812401
 20
39.3097792526
 10
90.0079138376
 20
39.2327860087
 10
89.9926020145
 20
39.1618424015
 10
89.9726470716
 20
39.099273951
  0
LINE
  5
32E
330
1F
100
AcDbEntity
  8
0
  6
Continuous
 62
     7
370
    15
100
AcDbLine
 10
89.372523631
 20
39.8674722234
 30
0.0
 11
89.8508778917
 21
39.8674722234
 31
0.0
  0
LWPOLYLINE
  5
32F
330
1F
100
AcDbEntity
  8
0
  6
Continuous
 62
     7
370
    15
100
AcDbPolyline
 90
       14
 70
   128
 43
0.0
 10
89.250754451
 20
39.099273951
 10
89.2307995082
 20
39.1618424015
 10
89.2154873917
 20
39.2327860087
 10
89.2053199892
 20
39.3097792526
 10
89.20063023
 20
39.3903018423
 10
89.2015715258
 20
39.4717138085
 10
89.2081133703
 20
39.5513481953
 10
89.2200413391
 20
39.6265967127
 10
89.236964717
 20
39.6949953892
 10
89.2583288168
 20
39.7543020107
 10
89.2834340468
 20
39.8025735598
 10
89.3114579098
 20
39.8382295745
 10
89.3414822829
 20
39.8601002552
 10
89.372523631
 20
39.8674722234
  0
LINE
  5
330
330
1F
100
AcDbEntity
  8
0
  6
Continuous
 62
     7
370
    15
100
AcDbLine
 10
89.4899315813
 20
38.4742734911
 30
0.0
 11
89.250754451
 21
39.099273951
 31
0.0
  0
LWPOLYLINE
  5
331
330
1F
100
AcDbEntity
  8
0
  6
Continuous
 62
     7
370
    15
100
AcDbPolyline
 90
       11
 70
   128
 43
0.0
 10
89.9344428996
 20
73.9935026366
 10
89.9290083758
 20
73.9891754332
 10
89.907342146
 20
73.9817213327
 10
89.8856759163
 20
73.9891754332
 10
89.8654860162
 20
74.0110285141
 10
89.8481487499
 20
74.0457916325
 10
89.8348453569
 20
74.0910970291
 10
89.8264825201
 20
74.143855353
 10
89.8236301798
 20
74.2004715523
 10
89.8264825201
 20
74.2570889249
 10
89.8281383677
 20
74.2712896142
  0
LWPOLYLINE
  5
332
330
1F
100
AcDbEntity
  8
0
  6
Continuous
 62
     7
370
    15
100
AcDbPolyline
 90
       25
 70
   128
 43
0.0
 10
89.751876982
 20
73.5754722657
 10
89.7490246416
 20
73.5188548931
 10
89.7406618049
 20
73.4660965692
 10
89.7273584119
 20
73.4207923459
 10
89.7100211455
 20
73.3860292275
 10
89.6898312454
 20
73.3641749733
 10
89.6681650157
 20
73.356722046
 10
89.646498786
 20
73.3641749733
 10
89.6263088859
 20
73.3860292275
 10
89.6089716195
 20
73.4207923459
 10
89.5956682265
 20
73.4660965692
 10
89.5873053898
 20
73.5188548931
 10
89.5844530494
 20
73.5754722657
 10
89.5873053898
 20
73.632088465
 10
89.5956682265
 20
73.6848467888
 10
89.6089716195
 20
73.7301510121
 10
89.6263088859
 20
73.7649153039
 10
89.646498786
 20
73.7867683848
 10
89.6681650157
 20
73.794221312
 10
89.6898312454
 20
73.7867683848
 10
89.7100211455
 20
73.7649153039
 10
89.7273584119
 20
73.7301510121
 10
89.7406618049
 20
73.6848467888
 10
89.7490246416
 20
73.632088465
 10
89.751876982
 20
73.5754722657
  0
LWPOLYLINE
  5
333
330
1F
100
AcDbEntity
  8
0
  6
Continuous
 62
     7
370
    15
100
AcDbPolyline
 90
       14
 70
   128
 43
0.0
 10
89.5463958357
 20
73.8936695498
 10
89.5264408929
 20
73.8311010993
 10
89.5111290698
 20
73.7601574922
 10
89.5009613739
 20
73.6831642483
 10
89.4962716148
 20
73.6026416585
 10
89.4972129106
 20
73.5212308656
 10
89.503754755
 20
73.4415953056
 10
89.5156827239
 20
73.3663467882
 10
89.5326061017
 20
73.2979481117
 10
89.5539702016
 20
73.2386414901
 10
89.5790754315
 20
73.1903699411
 10
89.6070992945
 20
73.1547139263
 10
89.6371236676
 20
73.1328432456
 10
89.6681650157
 20
73.1254712775
  0
LINE
  5
334
330
1F
100
AcDbEntity
  8
0
  6
Continuous
 62
     7
370
    15
100
AcDbLine
 10
89.7595214537
 20
74.4505939962
 30
0.0
 11
89.5463958357
 21
73.8936695498
 31
0.0
  0
LINE
  5
335
330
1F
100
AcDbEntity
  8
0
  6
Continuous
 62
     7
370
    15
100
AcDbLine
 10
89.5463958357
 20
39.099273951
 30
0.0
 11
89.7595214537
 21
38.5423495046
 31
0.0
  0
LWPOLYLINE
  5
336
330
1F
100
AcDbEntity
  8
0
  6
Continuous
 62
     7
370
    15
100
AcDbPolyline
 90
       14
 70
   128
 43
0.0
 10
89.6681650157
 20
39.8674722234
 10
89.6371236676
 20
39.8601002552
 10
89.6070992945
 20
39.8382295745
 10
89.5790754315
 20
39.8025735598
 10
89.5539702016
 20
39.7543020107
 10
89.5326061017
 20
39.6949953892
 10
89.5156827239
 20
39.6265967127
 10
89.503754755
 20
39.5513481953
 10
89.4972129106
 20
39.4717138085
 10
89.4962716148
 20
39.3903018423
 10
89.5009613739
 20
39.3097792526
 10
89.5111290698
 20
39.2327860087
 10
89.5264408929
 20
39.1618424015
 10
89.5463958357
 20
39.099273951
  0
LWPOLYLINE
  5
337
330
1F
100
AcDbEntity
  8
0
  6
Continuous
 62
     7
370
    15
100
AcDbPolyline
 90
       25
 70
   128
 43
0.0
 10
89.5844530494
 20
39.4174712352
 10
89.5873053898
 20
39.4740886078
 10
89.5956682265
 20
39.5268469316
 10
89.6089716195
 20
39.5721511549
 10
89.6263088859
 20
39.6069142734
 10
89.646498786
 20
39.6287685276
 10
89.6681650157
 20
39.6362214548
 10
89.6898312454
 20
39.6287685276
 10
89.7100211455
 20
39.6069142734
 10
89.7273584119
 20
39.5721511549
 10
89.7406618049
 20
39.5268469316
 10
89.7490246416
 20
39.4740886078
 10
89.751876982
 20
39.4174712352
 10
89.7490246416
 20
39.3608550359
 10
89.7406618049
 20
39.308096712
 10
89.7273584119
 20
39.2627924887
 10
89.7100211455
 20
39.2280281969
 10
89.6898312454
 20
39.2061751161
 10
89.6681650157
 20
39.1987221888
 10
89.646498786
 20
39.2061751161
 10
89.6263088859
 20
39.2280281969
 10
89.6089716195
 20
39.2627924887
 10
89.5956682265
 20
39.308096712
 10
89.5873053898
 20
39.3608550359
 10
89.5844530494
 20
39.4174712352
  0
LWPOLYLINE
  5
338
330
1F
100
AcDbEntity
  8
0
  6
Continuous
 62
     7
370
    15
100
AcDbPolyline
 90
        9
 70
   128
 43
0.0
 10
89.8236301798
 20
38.7924719485
 10
89.8264825201
 20
38.8490881478
 10
89.8348453569
 20
38.9018464717
 10
89.8481487499
 20
38.9471518683
 10
89.8654860162
 20
38.9819149867
 10
89.8856759163
 20
39.0037680676
 10
89.907342146
 20
39.0112221682
 10
89.9290083758
 20
39.0037680676
 10
89.9344428996
 20
38.9994420376
  0
LWPOLYLINE
  5
339
330
1F
100
AcDbEntity
  8
0
  6
Continuous
 62
     7
370
    15
100
AcDbPolyline
 90
        3
 70
   128
 43
0.0
 10
89.8281383677
 20
38.7216538866
 10
89.8264825201
 20
38.7358545759
 10
89.8236301798
 20
38.7924719485
  0
LINE
  5
33A
330
1F
100
AcDbEntity
  8
0
  6
Continuous
 62
     7
370
    15
100
AcDbLine
 10
89.5463958357
 20
73.8936695498
 30
0.0
 11
89.250754451
 21
73.8936695498
 31
0.0
  0
LINE
  5
33B
330
1F
100
AcDbEntity
  8
0
  6
Continuous
 62
     7
370
    15
100
AcDbLine
 10
89.5463958357
 20
39.099273951
 30
0.0
 11
89.250754451
 21
39.099273951
 31
0.0
  0
LWPOLYLINE
  5
33C
330
1F
100
AcDbEntity
  8
0
  6
Continuous
 62
     7
370
    15
100
AcDbPolyline
 90
       11
 70
   128
 43
0.0
 10
85.8014615242
 20
73.9935026366
 10
85.7960272936
 20
73.9891754332
 10
85.7743613573
 20
73.9817213327
 10
85.7526948342
 20
73.9891754332
 10
85.7325049341
 20
74.0110285141
 10
85.7151679611
 20
74.0457916325
 10
85.7018642748
 20
74.0910970291
 10
85.693501438
 20
74.143855353
 10
85.6906490976
 20
74.2004715523
 10
85.693501438
 20
74.2570889249
 10
85.6951569922
 20
74.2712896142
  0
LWPOLYLINE
  5
33D
330
1F
100
AcDbEntity
  8
0
  6
Continuous
 62
     7
370
    15
100
AcDbPolyline
 90
       25
 70
   128
 43
0.0
 10
85.6188958999
 20
73.5754722657
 10
85.6160435595
 20
73.5188548931
 10
85.6076807228
 20
73.4660965692
 10
85.5943770365
 20
73.4207923459
 10
85.5770400634
 20
73.3860292275
 10
85.5568501633
 20
73.3641749733
 10
85.5351842269
 20
73.356722046
 10
85.5135177039
 20
73.3641749733
 10
85.4933278038
 20
73.3860292275
 10
85.4759908307
 20
73.4207923459
 10
85.4626871444
 20
73.4660965692
 10
85.4543243077
 20
73.5188548931
 10
85.4514719673
 20
73.5754722657
 10
85.4543243077
 20
73.632088465
 10
85.4626871444
 20
73.6848467888
 10
85.4759908307
 20
73.7301510121
 10
85.4933278038
 20
73.7649153039
 10
85.5135177039
 20
73.7867683848
 10
85.5351842269
 20
73.794221312
 10
85.5568501633
 20
73.7867683848
 10
85.5770400634
 20
73.7649153039
 10
85.5943770365
 20
73.7301510121
 10
85.6076807228
 20
73.6848467888
 10
85.6160435595
 20
73.632088465
 10
85.6188958999
 20
73.5754722657
  0
LWPOLYLINE
  5
33E
330
1F
100
AcDbEntity
  8
0
  6
Continuous
 62
     7
370
    15
100
AcDbPolyline
 90
       14
 70
   128
 43
0.0
 10
85.4134147536
 20
73.8936695498
 10
85.3934601041
 20
73.8311010993
 10
85.3781476944
 20
73.7601574922
 10
85.3679802918
 20
73.6831642483
 10
85.3632905327
 20
73.6026416585
 10
85.3642321218
 20
73.5212308656
 10
85.3707739662
 20
73.4415953056
 10
85.3827019351
 20
73.3663467882
 10
85.3996247262
 20
73.2979481117
 10
85.4209891194
 20
73.2386414901
 10
85.4460946428
 20
73.1903699411
 10
85.4741182124
 20
73.1547139263
 10
85.5041428788
 20
73.1328432456
 10
85.5351842269
 20
73.1254712775
  0
LINE
  5
33F
330
1F
100
AcDbEntity
  8
0
  6
Continuous
 62
     7
370
    15
100
AcDbLine
 10
85.6265400782
 20
74.4505939962
 30
0.0
 11
85.4134147536
 21
73.8936695498
 31
0.0
  0
LINE
  5
340
330
1F
100
AcDbEntity
  8
0
  6
Continuous
 62
     7
370
    15
100
AcDbLine
 10
85.4134147536
 20
39.099273951
 30
0.0
 11
85.6265400782
 21
38.5423495046
 31
0.0
  0
LWPOLYLINE
  5
341
330
1F
100
AcDbEntity
  8
0
  6
Continuous
 62
     7
370
    15
100
AcDbPolyline
 90
       14
 70
   128
 43
0.0
 10
85.5351842269
 20
39.8674722234
 10
85.5041428788
 20
39.8601002552
 10
85.4741182124
 20
39.8382295745
 10
85.4460946428
 20
39.8025735598
 10
85.4209891194
 20
39.7543020107
 10
85.3996247262
 20
39.6949953892
 10
85.3827019351
 20
39.6265967127
 10
85.3707739662
 20
39.5513481953
 10
85.3642321218
 20
39.4717138085
 10
85.3632905327
 20
39.3903018423
 10
85.3679802918
 20
39.3097792526
 10
85.3781476944
 20
39.2327860087
 10
85.3934601041
 20
39.1618424015
 10
85.4134147536
 20
39.099273951
  0
LWPOLYLINE
  5
342
330
1F
100
AcDbEntity
  8
0
  6
Continuous
 62
     7
370
    15
100
AcDbPolyline
 90
       25
 70
   128
 43
0.0
 10
85.4514719673
 20
39.4174712352
 10
85.4543243077
 20
39.4740886078
 10
85.4626871444
 20
39.5268469316
 10
85.4759908307
 20
39.5721511549
 10
85.4933278038
 20
39.6069142734
 10
85.5135177039
 20
39.6287685276
 10
85.5351842269
 20
39.6362214548
 10
85.5568501633
 20
39.6287685276
 10
85.5770400634
 20
39.6069142734
 10
85.5943770365
 20
39.5721511549
 10
85.6076807228
 20
39.5268469316
 10
85.6160435595
 20
39.4740886078
 10
85.6188958999
 20
39.4174712352
 10
85.6160435595
 20
39.3608550359
 10
85.6076807228
 20
39.308096712
 10
85.5943770365
 20
39.2627924887
 10
85.5770400634
 20
39.2280281969
 10
85.5568501633
 20
39.2061751161
 10
85.5351842269
 20
39.1987221888
 10
85.5135177039
 20
39.2061751161
 10
85.4933278038
 20
39.2280281969
 10
85.4759908307
 20
39.2627924887
 10
85.4626871444
 20
39.308096712
 10
85.4543243077
 20
39.3608550359
 10
85.4514719673
 20
39.4174712352
  0
LWPOLYLINE
  5
343
330
1F
100
AcDbEntity
  8
0
  6
Continuous
 62
     7
370
    15
100
AcDbPolyline
 90
        9
 70
   128
 43
0.0
 10
85.6906490976
 20
38.7924719485
 10
85.693501438
 20
38.8490881478
 10
85.7018642748
 20
38.9018464717
 10
85.7151679611
 20
38.9471518683
 10
85.7325049341
 20
38.9819149867
 10
85.7526948342
 20
39.0037680676
 10
85.7743613573
 20
39.0112221682
 10
85.7960272936
 20
39.0037680676
 10
85.8014615242
 20
38.9994420376
  0
LWPOLYLINE
  5
344
330
1F
100
AcDbEntity
  8
0
  6
Continuous
 62
     7
370
    15
100
AcDbPolyline
 90
        3
 70
   128
 43
0.0
 10
85.6951569922
 20
38.7216538866
 10
85.693501438
 20
38.7358545759
 10
85.6906490976
 20
38.7924719485
  0
LINE
  5
345
330
1F
100
AcDbEntity
  8
0
  6
Continuous
 62
     7
370
    15
100
AcDbLine
 10
85.4134147536
 20
73.8936695498
 30
0.0
 11
85.1177733689
 21
73.8936695498
 31
0.0
  0
LINE
  5
346
330
1F
100
AcDbEntity
  8
0
  6
Continuous
 62
     7
370
    15
100
AcDbLine
 10
85.4134147536
 20
39.099273951
 30
0.0
 11
85.1177733689
 21
39.099273951
 31
0.0
  0
LINE
  5
347
330
1F
100
AcDbEntity
  8
0
  6
Continuous
 62
     7
370
    15
100
AcDbLine
 10
83.7587968546
 20
75.946472289
 30
0.0
 11
83.7587968546
 21
75.216471442
 31
0.0
  0
LINE
  5
348
330
1F
100
AcDbEntity
  8
0
  6
Continuous
 62
     7
370
    15
100
AcDbLine
 10
90.2145498238
 20
75.946472289
 30
0.0
 11
83.7587968546
 21
75.946472289
 31
0.0
  0
LINE
  5
349
330
1F
100
AcDbEntity
  8
0
  6
Continuous
 62
     7
370
    15
100
AcDbLine
 10
90.2145498238
 20
75.946472289
 30
0.0
 11
90.2145498238
 21
75.216471442
 31
0.0
  0
LINE
  5
34A
330
1F
100
AcDbEntity
  8
0
  6
Continuous
 62
     7
370
    15
100
AcDbLine
 10
90.2145498238
 20
75.216471442
 30
0.0
 11
83.7587968546
 21
75.216471442
 31
0.0
  0
LINE
  5
34B
330
1F
100
AcDbEntity
  8
0
  6
Continuous
 62
     7
370
    15
100
AcDbLine
 10
97.0010437457
 20
75.946472289
 30
0.0
 11
97.0010437457
 21
75.216471442
 31
0.0
  0
LINE
  5
34C
330
1F
100
AcDbEntity
  8
0
  6
Continuous
 62
     7
370
    15
100
AcDbLine
 10
97.0010437457
 20
75.946472289
 30
0.0
 11
90.2145498238
 21
75.946472289
 31
0.0
  0
LINE
  5
34D
330
1F
100
AcDbEntity
  8
0
  6
Continuous
 62
     7
370
    15
100
AcDbLine
 10
97.0010437457
 20
75.216471442
 30
0.0
 11
90.2145498238
 21
75.216471442
 31
0.0
  0
LINE
  5
34E
330
1F
100
AcDbEntity
  8
0
  6
Continuous
 62
     7
370
    15
100
AcDbLine
 10
103.4567967149
 20
75.946472289
 30
0.0
 11
103.4567967149
 21
75.216471442
 31
0.0
  0
LINE
  5
34F
330
1F
100
AcDbEntity
  8
0
  6
Continuous
 62
     7
370
    15
100
AcDbLine
 10
103.4567967149
 20
75.946472289
 30
0.0
 11
97.0010437457
 21
75.946472289
 31
0.0
  0
LINE
  5
350
330
1F
100
AcDbEntity
  8
0
  6
Continuous
 62
     7
370
    15
100
AcDbLine
 10
103.4567967149
 20
75.216471442
 30
0.0
 11
97.0010437457
 21
75.216471442
 31
0.0
  0
LINE
  5
351
330
1F
100
AcDbEntity
  8
0
  6
Continuous
 62
     7
370
    15
100
AcDbLine
 10
90.2145498238
 20
37.0464712118
 30
0.0
 11
90.2145498238
 21
37.7764720588
 31
0.0
  0
LINE
  5
352
330
1F
100
AcDbEntity
  8
0
  6
Continuous
 62
     7
370
    15
100
AcDbLine
 10
83.7587968546
 20
37.0464712118
 30
0.0
 11
83.7587968546
 21
37.7764720588
 31
0.0
  0
LINE
  5
353
330
1F
100
AcDbEntity
  8
0
  6
Continuous
 62
     7
370
    15
100
AcDbLine
 10
83.7587968546
 20
37.7764720588
 30
0.0
 11
90.2145498238
 21
37.7764720588
 31
0.0
  0
LINE
  5
354
330
1F
100
AcDbEntity
  8
0
  6
Continuous
 62
     7
370
    15
100
AcDbLine
 10
83.7587968546
 20
37.0464712118
 30
0.0
 11
90.2145498238
 21
37.0464712118
 31
0.0
  0
LINE
  5
355
330
1F
100
AcDbEntity
  8
0
  6
Continuous
 62
     7
370
    15
100
AcDbLine
 10
97.0010437457
 20
37.0464712118
 30
0.0
 11
97.0010437457
 21
37.7764720588
 31
0.0
  0
LINE
  5
356
330
1F
100
AcDbEntity
  8
0
  6
Continuous
 62
     7
370
    15
100
AcDbLine
 10
90.2145498238
 20
37.7764720588
 30
0.0
 11
97.0010437457
 21
37.7764720588
 31
0.0
  0
LINE
  5
357
330
1F
100
AcDbEntity
  8
0
  6
Continuous
 62
     7
370
    15
100
AcDbLine
 10
90.2145498238
 20
37.0464712118
 30
0.0
 11
97.0010437457
 21
37.0464712118
 31
0.0
  0
LINE
  5
358
330
1F
100
AcDbEntity
  8
0
  6
Continuous
 62
     7
370
    15
100
AcDbLine
 10
103.4567967149
 20
37.0464712118
 30
0.0
 11
103.4567967149
 21
37.7764720588
 31
0.0
  0
LINE
  5
359
330
1F
100
AcDbEntity
  8
0
  6
Continuous
 62
     7
370
    15
100
AcDbLine
 10
97.0010437457
 20
37.7764720588
 30
0.0
 11
103.4567967149
 21
37.7764720588
 31
0.0
  0
LINE
  5
35A
330
1F
100
AcDbEntity
  8
0
  6
Continuous
 62
     7
370
    15
100
AcDbLine
 10
97.0010437457
 20
37.0464712118
 30
0.0
 11
103.4567967149
 21
37.0464712118
 31
0.0
  0
ARC
  5
35B
330
1F
100
AcDbEntity
  8
0
  6
Continuous
 62
     7
370
    15
100
AcDbCircle
 10
95.3477967248
 20
60.403771794
 30
0.0
 40
0.25
100
AcDbArc
 50
0.0
 51
90.0
  0
LINE
  5
35C
330
1F
100
AcDbEntity
  8
0
  6
Continuous
 62
     7
370
    15
100
AcDbLine
 10
95.3477968708
 20
60.6537719383
 30
0.0
 11
91.8677966987
 21
60.6537719383
 31
0.0
  0
ARC
  5
35D
330
1F
100
AcDbEntity
  8
0
  6
Continuous
 62
     7
370
    15
100
AcDbCircle
 10
91.8677967248
 20
60.403771794
 30
0.0
 40
0.2500000000000142
100
AcDbArc
 50
90.0
 51
180.0
  0
LINE
  5
35E
330
1F
100
AcDbEntity
  8
0
  6
Continuous
 62
     7
370
    15
100
AcDbLine
 10
95.5977967028
 20
57.5187717807
 30
0.0
 11
95.5977967028
 21
60.403771813
 31
0.0
  0
ARC
  5
35F
330
1F
100
AcDbEntity
  8
0
  6
Continuous
 62
     7
370
    15
100
AcDbCircle
 10
91.8677967248
 20
57.518771794
 30
0.0
 40
0.2500000000000142
100
AcDbArc
 50
180.0
 51
270.0
  0
ARC
  5
360
330
1F
100
AcDbEntity
  8
0
  6
Continuous
 62
     7
370
    15
100
AcDbCircle
 10
95.3477967248
 20
57.518771794
 30
0.0
 40
0.25
100
AcDbArc
 50
270.0
 51
0.0
  0
LINE
  5
361
330
1F
100
AcDbEntity
  8
0
  6
Continuous
 62
     7
370
    15
100
AcDbLine
 10
91.6177967201
 20
60.403771813
 30
0.0
 11
91.6177967201
 21
57.5187717807
 31
0.0
  0
LINE
  5
362
330
1F
100
AcDbEntity
  8
0
  6
Continuous
 62
     7
370
    15
100
AcDbLine
 10
91.8677966987
 20
57.2687718021
 30
0.0
 11
95.3477968708
 21
57.2687718021
 31
0.0
  0
LINE
  5
363
330
1F
100
AcDbEntity
  8
0
  6
Continuous
 62
     8
370
    15
100
AcDbLine
 10
97.4818082985
 20
38.4742734911
 30
0.0
 11
97.7253466585
 21
38.4742734911
 31
0.0
  0
LINE
  5
364
330
1F
100
AcDbEntity
  8
0
  6
Continuous
 62
     8
370
    15
100
AcDbLine
 10
97.4818082985
 20
74.5186700098
 30
0.0
 11
97.7253466585
 21
74.5186700098
 31
0.0
  0
LINE
  5
365
330
1F
100
AcDbEntity
  8
0
  6
Continuous
 62
     8
370
    15
100
AcDbLine
 10
101.6147896739
 20
38.4742734911
 30
0.0
 11
101.8583274472
 21
38.4742734911
 31
0.0
  0
LINE
  5
366
330
1F
100
AcDbEntity
  8
0
  6
Continuous
 62
     8
370
    15
100
AcDbLine
 10
101.6147896739
 20
74.5186700098
 30
0.0
 11
101.8583274472
 21
74.5186700098
 31
0.0
  0
LINE
  5
367
330
1F
100
AcDbEntity
  8
0
  6
Continuous
 62
     8
370
    15
100
AcDbLine
 10
89.7334699413
 20
74.5186700098
 30
0.0
 11
89.4899315813
 21
74.5186700098
 31
0.0
  0
LINE
  5
368
330
1F
100
AcDbEntity
  8
0
  6
Continuous
 62
     8
370
    15
100
AcDbLine
 10
89.7334699413
 20
38.4742734911
 30
0.0
 11
89.4899315813
 21
38.4742734911
 31
0.0
  0
LINE
  5
369
330
1F
100
AcDbEntity
  8
0
  6
Continuous
 62
     8
370
    15
100
AcDbLine
 10
85.6004888592
 20
74.5186700098
 30
0.0
 11
85.3569504992
 21
74.5186700098
 31
0.0
  0
LINE
  5
36A
330
1F
100
AcDbEntity
  8
0
  6
Continuous
 62
     8
370
    15
100
AcDbLine
 10
85.6004888592
 20
38.4742734911
 30
0.0
 11
85.3569504992
 21
38.4742734911
 31
0.0
  0
SPLINE
  5
36B
330
1F
100
AcDbEntity
  8
0
  6
Continuous
 62
     7
370
    15
100
AcDbSpline
210
0.0
220
0.0
230
1.0
 70
     8
 71
     3
 72
    17
 73
    13
 74
     0
 42
0.000000001
 43
0.00000001
 40
0.0
 40
0.0
 40
0.0
 40
0.0
 40
0.1235256697256157
 40
0.462003988461269
 40
0.6437120880368744
 40
0.7186205837427855
 40
0.7589386574860519
 40
0.7878734155852939
 40
0.8182676216068265
 40
0.8525239173089483
 40
0.905957409567935
 40
0.9999999999999999
 40
0.9999999999999999
 40
0.9999999999999999
 40
0.9999999999999999
 10
23.34658504254813
 20
39.9535869004383
 30
0.0
 10
23.35061571631397
 20
39.95184654120649
 30
0.0
 10
23.36569102301047
 20
39.94533734430646
 30
0.0
 10
23.39089391016284
 20
39.93573826863128
 30
0.0
 10
23.41747862716361
 20
39.92584814700006
 30
0.0
 10
23.43358007820388
 20
39.92003056452083
 30
0.0
 10
23.442317039087
 20
39.91690072821898
 30
0.0
 10
23.44829050960799
 20
39.91476530791668
 30
0.0
 10
23.45291654155783
 20
39.91311236792238
 30
0.0
 10
23.45674059978058
 20
39.91174036823113
 30
0.0
 10
23.4598409030652
 20
39.91061940170668
 30
0.0
 10
23.45993104927121
 20
39.91058533466268
 30
0.0
 10
23.45998853372955
 20
39.91056361078035
 30
0.0
  0
LINE
  5
36C
330
1F
100
AcDbEntity
  8
0
  6
Continuous
 62
     7
370
    15
100
AcDbLine
 10
11.1471063193
 20
61.0966688138
 30
0.0
 11
11.1444684976
 21
61.0968591849
 31
0.0
  0
LINE
  5
36D
330
1F
100
AcDbEntity
  8
0
  6
Continuous
 62
     7
370
    15
100
AcDbLine
 10
11.1444684976
 20
61.0968591849
 30
0.0
 11
11.1470089676
 21
61.0968591849
 31
0.0
  0
LINE
  5
36E
330
1F
100
AcDbEntity
  8
0
  6
Continuous
 62
     7
370
    15
100
AcDbLine
 10
11.1473737356
 20
57.8118590402
 30
0.0
 11
11.1444684976
 21
57.8118590402
 31
0.0
  0
LINE
  5
36F
330
1F
100
AcDbEntity
  8
0
  6
Continuous
 62
     7
370
    15
100
AcDbLine
 10
11.1444684976
 20
57.8118590402
 30
0.0
 11
11.1475011114
 21
57.8121105706
 31
0.0
  0
LWPOLYLINE
  5
370
330
1F
100
AcDbEntity
  8
0
  6
Continuous
 62
     7
370
    15
100
AcDbPolyline
 90
       17
 70
   128
 43
0.0
 10
9.80886383
 20
60.7730223392
 10
9.8209456799
 20
60.77930224
 10
9.8311881602
 20
60.7971859801
 10
9.8380319853
 20
60.8239508709
 10
9.8404352133
 20
60.8555222662
 10
9.8380319853
 20
60.8870936614
 10
9.8311881602
 20
60.9138585523
 10
9.8209456799
 20
60.9317422923
 10
9.80886383
 20
60.9380224864
 10
9.7967819801
 20
60.9317422923
 10
9.7865394998
 20
60.9138585523
 10
9.7796956888
 20
60.8870936614
 10
9.7772924467
 20
60.8555222662
 10
9.7796956888
 20
60.8239508709
 10
9.7865394998
 20
60.7971859801
 10
9.7967819801
 20
60.77930224
 10
9.80886383
 20
60.7730223392
  0
LWPOLYLINE
  5
371
330
1F
100
AcDbEntity
  8
0
  6
Continuous
 62
     7
370
    15
100
AcDbPolyline
 90
       17
 70
   128
 43
0.0
 10
11.0909322447
 20
60.7730223392
 10
11.1030140946
 20
60.77930224
 10
11.1132565749
 20
60.7971859801
 10
11.1201003859
 20
60.8239508709
 10
11.1225035999
 20
60.8555222662
 10
11.1201003859
 20
60.8870936614
 10
11.1132565749
 20
60.9138585523
 10
11.1030140946
 20
60.9317422923
 10
11.0909322447
 20
60.9380224864
 10
11.0788503948
 20
60.9317422923
 10
11.0686079145
 20
60.9138585523
 10
11.0617641035
 20
60.8870936614
 10
11.0593608895
 20
60.8555222662
 10
11.0617641035
 20
60.8239508709
 10
11.0686079145
 20
60.7971859801
 10
11.0788503948
 20
60.77930224
 10
11.0909322447
 20
60.7730223392
  0
LWPOLYLINE
  5
372
330
1F
100
AcDbEntity
  8
0
  6
Continuous
 62
     7
370
    15
100
AcDbPolyline
 90
        9
 70
   128
 43
0.0
 10
9.7553276052
 20
61.0968591849
 10
9.7459953805
 20
61.094457106
 10
9.7370217746
 20
61.0873441481
 10
9.7287516551
 20
61.0757928149
 10
9.721502837
 20
61.0602475012
 10
9.715553903
 20
61.0413054266
 10
9.7111334272
 20
61.0196946363
 10
9.7084113038
 20
60.9962452539
 10
9.7074921803
 20
60.9718589756
  0
LINE
  5
373
330
1F
100
AcDbEntity
  8
0
  6
Continuous
 62
     7
370
    15
100
AcDbLine
 10
11.1444684976
 20
61.0968591849
 30
0.0
 11
9.7553276052
 21
61.0968591849
 31
0.0
  0
LINE
  5
374
330
1F
100
AcDbEntity
  8
0
  6
Continuous
 62
     7
370
    15
100
AcDbLine
 10
9.7553276052
 20
57.8118590402
 30
0.0
 11
11.1444684976
 21
57.8118590402
 31
0.0
  0
LWPOLYLINE
  5
375
330
1F
100
AcDbEntity
  8
0
  6
Continuous
 62
     7
370
    15
100
AcDbPolyline
 90
        9
 70
   128
 43
0.0
 10
9.7074921803
 20
57.9368591028
 10
9.7084113038
 20
57.9124728245
 10
9.7111334272
 20
57.8890235887
 10
9.715553903
 20
57.8674127984
 10
9.721502837
 20
57.8484707239
 10
9.7287516551
 20
57.8329254101
 10
9.7370217746
 20
57.8213740769
 10
9.7459953805
 20
57.8142609724
 10
9.7553276052
 20
57.8118590402
  0
LINE
  5
376
330
1F
100
AcDbEntity
  8
0
  6
Continuous
 62
     7
370
    15
100
AcDbLine
 10
9.7074921803
 20
60.9718589756
 30
0.0
 11
9.7074921803
 21
57.9368591028
 31
0.0
  0
LWPOLYLINE
  5
377
330
1F
100
AcDbEntity
  8
0
  6
Continuous
 62
     7
370
    15
100
AcDbPolyline
 90
        9
 70
   128
 43
0.0
 10
9.8720460393
 20
60.5368591741
 10
9.8729651909
 20
60.5612454523
 10
9.8756873003
 20
60.5846945415
 10
9.880107762
 20
60.6063053318
 10
9.8860567101
 20
60.6252474063
 10
9.8933055282
 20
60.6407927201
 10
9.9015756476
 20
60.6523440533
 10
9.9105492396
 20
60.6594573045
 10
9.9198814783
 20
60.66185909
  0
LINE
  5
378
330
1F
100
AcDbEntity
  8
0
  6
Continuous
 62
     7
370
    15
100
AcDbLine
 10
9.8720460393
 20
58.371859051
 30
0.0
 11
9.8720460393
 21
60.5368591741
 31
0.0
  0
LWPOLYLINE
  5
379
330
1F
100
AcDbEntity
  8
0
  6
Continuous
 62
     7
370
    15
100
AcDbPolyline
 90
        9
 70
   128
 43
0.0
 10
9.9198814783
 20
58.246859135
 10
9.9105492396
 20
58.2492609206
 10
9.9015756476
 20
58.2563741717
 10
9.8933055282
 20
58.2679253583
 10
9.8860567101
 20
58.2834706721
 10
9.880107762
 20
58.3024127466
 10
9.8756873003
 20
58.3240236836
 10
9.8729651909
 20
58.3474727727
 10
9.8720460393
 20
58.371859051
  0
LINE
  5
37A
330
1F
100
AcDbEntity
  8
0
  6
Continuous
 62
     7
370
    15
100
AcDbLine
 10
10.9799145684
 20
58.246859135
 30
0.0
 11
9.9198814783
 21
58.246859135
 31
0.0
  0
LWPOLYLINE
  5
37B
330
1F
100
AcDbEntity
  8
0
  6
Continuous
 62
     7
370
    15
100
AcDbPolyline
 90
        9
 70
   128
 43
0.0
 10
11.0277500214
 20
58.371859051
 10
11.0268308978
 20
58.3474727727
 10
11.0241087745
 20
58.3240236836
 10
11.0196882706
 20
58.3024127466
 10
11.0137393366
 20
58.2834706721
 10
11.0064905185
 20
58.2679253583
 10
10.9982204271
 20
58.2563741717
 10
10.989246793
 20
58.2492609206
 10
10.9799145684
 20
58.246859135
  0
LINE
  5
37C
330
1F
100
AcDbEntity
  8
0
  6
Continuous
 62
     7
370
    15
100
AcDbLine
 10
11.0277500214
 20
58.371859051
 30
0.0
 11
11.0277500214
 21
60.5368591741
 31
0.0
  0
LWPOLYLINE
  5
37D
330
1F
100
AcDbEntity
  8
0
  6
Continuous
 62
     7
370
    15
100
AcDbPolyline
 90
        9
 70
   128
 43
0.0
 10
10.9799145684
 20
60.66185909
 10
10.989246793
 20
60.6594573045
 10
10.9982204271
 20
60.6523440533
 10
11.0064905185
 20
60.6407927201
 10
11.0137393366
 20
60.6252474063
 10
11.0196882706
 20
60.6063053318
 10
11.0241087745
 20
60.5846945415
 10
11.0268308978
 20
60.5612454523
 10
11.0277500214
 20
60.5368591741
  0
LINE
  5
37E
330
1F
100
AcDbEntity
  8
0
  6
Continuous
 62
     7
370
    15
100
AcDbLine
 10
10.9799145684
 20
60.66185909
 30
0.0
 11
9.9198814783
 21
60.66185909
 31
0.0
  0
LWPOLYLINE
  5
37F
330
1F
100
AcDbEntity
  8
0
  6
Continuous
 62
     7
370
    15
100
AcDbPolyline
 90
       17
 70
   128
 43
0.0
 10
11.0909322447
 20
57.9706957386
 10
11.1030140946
 20
57.9769756394
 10
11.1132565749
 20
57.9948595261
 10
11.1201003859
 20
58.0216244169
 10
11.1225035999
 20
58.0531958122
 10
11.1201003859
 20
58.0847672075
 10
11.1132565749
 20
58.1115320983
 10
11.1030140946
 20
58.1294158384
 10
11.0909322447
 20
58.1356957392
 10
11.0788503948
 20
58.1294158384
 10
11.0686079145
 20
58.1115320983
 10
11.0617641035
 20
58.0847672075
 10
11.0593608895
 20
58.0531958122
 10
11.0617641035
 20
58.0216244169
 10
11.0686079145
 20
57.9948595261
 10
11.0788503948
 20
57.9769756394
 10
11.0909322447
 20
57.9706957386
  0
LWPOLYLINE
  5
380
330
1F
100
AcDbEntity
  8
0
  6
Continuous
 62
     7
370
    15
100
AcDbPolyline
 90
       17
 70
   128
 43
0.0
 10
9.80886383
 20
57.9706957386
 10
9.8209456799
 20
57.9769756394
 10
9.8311881602
 20
57.9948595261
 10
9.8380319853
 20
58.0216244169
 10
9.8404352133
 20
58.0531958122
 10
9.8380319853
 20
58.0847672075
 10
9.8311881602
 20
58.1115320983
 10
9.8209456799
 20
58.1294158384
 10
9.80886383
 20
58.1356957392
 10
9.7967819801
 20
58.1294158384
 10
9.7865394998
 20
58.1115320983
 10
9.7796956888
 20
58.0847672075
 10
9.7772924467
 20
58.0531958122
 10
9.7796956888
 20
58.0216244169
 10
9.7865394998
 20
57.9948595261
 10
9.7967819801
 20
57.9769756394
 10
9.80886383
 20
57.9706957386
  0
LINE
  5
381
330
1F
100
AcDbEntity
  8
0
  6
Continuous
 62
     7
370
    15
100
AcDbLine
 10
9.8720460393
 20
58.371859051
 30
0.0
 11
10.0198667722
 21
58.371859051
 31
0.0
  0
LWPOLYLINE
  5
382
330
1F
100
AcDbEntity
  8
0
  6
Continuous
 62
     7
370
    15
100
AcDbPolyline
 90
        9
 70
   128
 43
0.0
 10
10.0198667722
 20
58.371859051
 10
10.0207859238
 20
58.3474727727
 10
10.0235080332
 20
58.3240236836
 10
10.0279284949
 20
58.3024127466
 10
10.033877443
 20
58.2834706721
 10
10.0411262611
 20
58.2679253583
 10
10.0493963805
 20
58.2563741717
 10
10.0583699725
 20
58.2492609206
 10
10.0677022112
 20
58.246859135
  0
LINE
  5
383
330
1F
100
AcDbEntity
  8
0
  6
Continuous
 62
     7
370
    15
100
AcDbLine
 10
10.0198667722
 20
60.5368591741
 30
0.0
 11
9.8720460393
 21
60.5368591741
 31
0.0
  0
LWPOLYLINE
  5
384
330
1F
100
AcDbEntity
  8
0
  6
Continuous
 62
     7
370
    15
100
AcDbPolyline
 90
        9
 70
   128
 43
0.0
 10
10.0677022112
 20
60.66185909
 10
10.0583699725
 20
60.6594573045
 10
10.0493963805
 20
60.6523440533
 10
10.0411262611
 20
60.6407927201
 10
10.033877443
 20
60.6252474063
 10
10.0279284949
 20
60.6063053318
 10
10.0235080332
 20
60.5846945415
 10
10.0207859238
 20
60.5612454523
 10
10.0198667722
 20
60.5368591741
  0
LINE
  5
385
330
1F
100
AcDbEntity
  8
0
  6
Continuous
 62
     7
370
    15
100
AcDbLine
 10
10.0198667722
 20
60.5368591741
 30
0.0
 11
10.0198667722
 21
58.371859051
 31
0.0
  0
LWPOLYLINE
  5
386
330
1F
100
AcDbEntity
  8
0
  6
Continuous
 62
     7
370
    15
100
AcDbPolyline
 90
        9
 70
   128
 43
0.0
 10
10.0677022112
 20
58.246859135
 10
10.0583699725
 20
58.2492609206
 10
10.0493963805
 20
58.2563741717
 10
10.0411262611
 20
58.2679253583
 10
10.033877443
 20
58.2834706721
 10
10.0279284949
 20
58.3024127466
 10
10.0235080332
 20
58.3240236836
 10
10.0207859238
 20
58.3474727727
 10
10.0198667722
 20
58.371859051
  0
LWPOLYLINE
  5
387
330
1F
100
AcDbEntity
  8
0
  6
Continuous
 62
     7
370
    15
100
AcDbPolyline
 90
        9
 70
   128
 43
0.0
 10
10.0198667722
 20
60.5368591741
 10
10.0207859238
 20
60.5612454523
 10
10.0235080332
 20
60.5846945415
 10
10.0279284949
 20
60.6063053318
 10
10.033877443
 20
60.6252474063
 10
10.0411262611
 20
60.6407927201
 10
10.0493963805
 20
60.6523440533
 10
10.0583699725
 20
60.6594573045
 10
10.0677022112
 20
60.66185909
  0
LINE
  5
388
330
1F
100
AcDbEntity
  8
0
  6
Continuous
 62
     7
370
    15
100
AcDbLine
 10
10.1704828116
 20
58.6468591008
 30
0.0
 11
10.1704828116
 21
59.1968590538
 31
0.0
  0
LINE
  5
389
330
1F
100
AcDbEntity
  8
0
  6
Continuous
 62
     7
370
    15
100
AcDbLine
 10
10.1704828116
 20
59.1968590538
 30
0.0
 11
10.8401787996
 21
59.1968590538
 31
0.0
  0
LINE
  5
38A
330
1F
100
AcDbEntity
  8
0
  6
Continuous
 62
     7
370
    15
100
AcDbLine
 10
10.8401787996
 20
59.1968590538
 30
0.0
 11
10.8401787996
 21
58.6468591008
 31
0.0
  0
LINE
  5
38B
330
1F
100
AcDbEntity
  8
0
  6
Continuous
 62
     7
370
    15
100
AcDbLine
 10
10.8401787996
 20
58.6468591008
 30
0.0
 11
10.1704828116
 21
58.6468591008
 31
0.0
  0
LINE
  5
38C
330
1F
100
AcDbEntity
  8
0
  6
Continuous
 62
     7
370
    15
100
AcDbLine
 10
10.932566745
 20
59.1968590538
 30
0.0
 11
10.932566745
 21
58.6468591008
 31
0.0
  0
LINE
  5
38D
330
1F
100
AcDbEntity
  8
0
  6
Continuous
 62
     7
370
    15
100
AcDbLine
 10
10.8401787996
 20
59.1968590538
 30
0.0
 11
10.932566745
 21
59.1968590538
 31
0.0
  0
LINE
  5
38E
330
1F
100
AcDbEntity
  8
0
  6
Continuous
 62
     7
370
    15
100
AcDbLine
 10
10.8401787996
 20
58.6468591008
 30
0.0
 11
10.932566745
 21
58.6468591008
 31
0.0
  0
ARC
  5
38F
330
1F
100
AcDbEntity
  8
0
  6
Continuous
 62
     7
370
    15
100
AcDbCircle
 10
23.7808435223
 20
41.0209411125
 30
0.0
 40
0.9611068827480665
100
AcDbArc
 50
251.1779142435
 51
266.0353698911
  0
ARC
  5
390
330
1F
100
AcDbEntity
  8
0
  6
Continuous
 62
     7
370
    15
100
AcDbCircle
 10
23.7827878302
 20
41.0305895777
 30
0.0
 40
0.9708675231752724
100
AcDbArc
 50
251.2530140778
 51
265.9602700568
  0
LINE
  5
391
330
1F
100
AcDbEntity
  8
0
  6
Continuous
 62
     7
370
    15
100
AcDbLine
 10
24.8070132667
 20
73.6182010973
 30
0.0
 11
23.5570133118
 21
73.6182010973
 31
0.0
  0
ARC
  5
392
330
1F
100
AcDbEntity
  8
0
  6
Continuous
 62
     7
370
    15
100
AcDbCircle
 10
24.8070130757
 20
74.0682016138
 30
0.0
 40
0.4500000000000028
100
AcDbArc
 50
270.0
 51
45.0
  0
LINE
  5
393
330
1F
100
AcDbEntity
  8
0
  6
Continuous
 62
     7
370
    15
100
AcDbLine
 10
24.5002110444
 20
75.0113998296
 30
0.0
 11
25.1252110218
 21
74.3863993697
 31
0.0
  0
ARC
  5
394
330
1F
100
AcDbEntity
  8
0
  6
Continuous
 62
     7
370
    15
100
AcDbCircle
 10
24.1820130757
 20
74.6932016138
 30
0.0
 40
0.4499999999999991
100
AcDbArc
 50
45.0
 51
135.0
  0
LINE
  5
395
330
1F
100
AcDbEntity
  8
0
  6
Continuous
 62
     7
370
    15
100
AcDbLine
 10
23.2388155567
 20
74.3863993697
 30
0.0
 11
23.8638155341
 21
75.0113998296
 31
0.0
  0
ARC
  5
396
330
1F
100
AcDbEntity
  8
0
  6
Continuous
 62
     7
370
    15
100
AcDbCircle
 10
23.5570130757
 20
74.0682016138
 30
0.0
 40
0.4500000000000028
100
AcDbArc
 50
135.0
 51
270.0
  0
LINE
  5
397
330
1F
100
AcDbEntity
  8
0
  6
Continuous
 62
     7
370
    15
100
AcDbLine
 10
11.6429848656
 20
75.7092012619
 30
0.0
 11
11.6429848656
 21
38.2692018786
 31
0.0
  0
LINE
  5
398
330
1F
100
AcDbEntity
  8
0
  6
Continuous
 62
     7
370
    15
100
AcDbLine
 10
28.5321034529
 20
75.7092012619
 30
0.0
 11
28.5380130247
 21
75.7092012619
 31
0.0
  0
LINE
  5
399
330
1F
100
AcDbEntity
  8
0
  6
Continuous
 62
     7
370
    15
100
AcDbLine
 10
14.0070130295
 20
73.6182010973
 30
0.0
 11
12.7570130514
 21
73.6182010973
 31
0.0
  0
ARC
  5
39A
330
1F
100
AcDbEntity
  8
0
  6
Continuous
 62
     7
370
    15
100
AcDbCircle
 10
14.0070130757
 20
74.0682016138
 30
0.0
 40
0.4500000000000028
100
AcDbArc
 50
270.0
 51
45.0
  0
LINE
  5
39B
330
1F
100
AcDbEntity
  8
0
  6
Continuous
 62
     7
370
    15
100
AcDbLine
 10
13.7002111672
 20
75.0113998296
 30
0.0
 11
14.3252112801
 21
74.3863993697
 31
0.0
  0
ARC
  5
39C
330
1F
100
AcDbEntity
  8
0
  6
Continuous
 62
     7
370
    15
100
AcDbCircle
 10
13.3820130757
 20
74.6932016138
 30
0.0
 40
0.4499999999999966
100
AcDbArc
 50
45.0
 51
135.0
  0
LINE
  5
39D
330
1F
100
AcDbEntity
  8
0
  6
Continuous
 62
     7
370
    15
100
AcDbLine
 10
12.4388150486
 20
74.3863993697
 30
0.0
 11
13.063815026
 21
75.0113998296
 31
0.0
  0
ARC
  5
39E
330
1F
100
AcDbEntity
  8
0
  6
Continuous
 62
     7
370
    15
100
AcDbCircle
 10
12.7570130757
 20
74.0682016138
 30
0.0
 40
0.4500000000000028
100
AcDbArc
 50
135.0
 51
270.0
  0
LINE
  5
39F
330
1F
100
AcDbEntity
  8
0
  6
Continuous
 62
     7
370
    15
100
AcDbLine
 10
28.5380130247
 20
38.2692018786
 30
0.0
 11
28.5321034529
 21
38.2692018786
 31
0.0
  0
ARC
  5
3A0
330
1F
100
AcDbEntity
  8
0
  6
Continuous
 62
     7
370
    15
100
AcDbCircle
 10
23.5570130757
 20
39.9102016138
 30
0.0
 40
0.4500000000000042
100
AcDbArc
 50
90.0
 51
225.0
  0
LINE
  5
3A1
330
1F
100
AcDbEntity
  8
0
  6
Continuous
 62
     7
370
    15
100
AcDbLine
 10
13.063815026
 20
38.9670033109
 30
0.0
 11
12.4388150486
 21
39.5920037708
 31
0.0
  0
LINE
  5
3A2
330
1F
100
AcDbEntity
  8
0
  6
Continuous
 62
     7
370
    15
100
AcDbLine
 10
14.3252112801
 20
39.5920037708
 30
0.0
 11
13.7002111672
 21
38.9670033109
 31
0.0
  0
ARC
  5
3A3
330
1F
100
AcDbEntity
  8
0
  6
Continuous
 62
     7
370
    15
100
AcDbCircle
 10
13.3820130757
 20
39.2852016138
 30
0.0
 40
0.4500000000000016
100
AcDbArc
 50
225.0
 51
315.0
  0
ARC
  5
3A4
330
1F
100
AcDbEntity
  8
0
  6
Continuous
 62
     7
370
    15
100
AcDbCircle
 10
12.7570130757
 20
39.9102016138
 30
0.0
 40
0.4500000000000016
100
AcDbArc
 50
90.0
 51
225.0
  0
LINE
  5
3A5
330
1F
100
AcDbEntity
  8
0
  6
Continuous
 62
     7
370
    15
100
AcDbLine
 10
23.5570133118
 20
40.3602020432
 30
0.0
 11
24.8070132667
 21
40.3602020432
 31
0.0
  0
LINE
  5
3A6
330
1F
100
AcDbEntity
  8
0
  6
Continuous
 62
     7
370
    15
100
AcDbLine
 10
28.5380130247
 20
75.7092012619
 30
0.0
 11
28.5380130247
 21
38.2692018786
 31
0.0
  0
LINE
  5
3A7
330
1F
100
AcDbEntity
  8
0
  6
Continuous
 62
     7
370
    15
100
AcDbLine
 10
23.8638155341
 20
38.9670033109
 30
0.0
 11
23.2388155567
 21
39.5920037708
 31
0.0
  0
LINE
  5
3A8
330
1F
100
AcDbEntity
  8
0
  6
Continuous
 62
     7
370
    15
100
AcDbLine
 10
12.7570130514
 20
40.3602020432
 30
0.0
 11
14.0070130295
 21
40.3602020432
 31
0.0
  0
ARC
  5
3A9
330
1F
100
AcDbEntity
  8
0
  6
Continuous
 62
     7
370
    15
100
AcDbCircle
 10
24.1820130757
 20
39.2852016138
 30
0.0
 40
0.4500000000000016
100
AcDbArc
 50
225.0
 51
315.0
  0
ARC
  5
3AA
330
1F
100
AcDbEntity
  8
0
  6
Continuous
 62
     7
370
    15
100
AcDbCircle
 10
24.8070130757
 20
39.9102016138
 30
0.0
 40
0.4499999999999991
100
AcDbArc
 50
315.0
 51
90.0
  0
ARC
  5
3AB
330
1F
100
AcDbEntity
  8
0
  6
Continuous
 62
     7
370
    15
100
AcDbCircle
 10
14.0070130757
 20
39.9102016138
 30
0.0
 40
0.4499999999999991
100
AcDbArc
 50
315.0
 51
90.0
  0
LINE
  5
3AC
330
1F
100
AcDbEntity
  8
0
  6
Continuous
 62
     7
370
    15
100
AcDbLine
 10
25.1252110218
 20
39.5920037708
 30
0.0
 11
24.5002110444
 21
38.9670033109
 31
0.0
  0
LINE
  5
3AD
330
1F
100
AcDbEntity
  8
0
  6
Continuous
 62
     7
370
    15
100
AcDbLine
 10
11.3990131274
 20
38.2692018786
 30
0.0
 11
11.3990131274
 21
75.7092012619
 31
0.0
  0
CIRCLE
  5
3AE
330
1F
100
AcDbEntity
  8
0
  6
Continuous
 62
     7
370
    15
100
AcDbCircle
 10
24.1820130757
 20
39.2852016138
 30
0.0
 40
0.2187500000000036
  0
CIRCLE
  5
3AF
330
1F
100
AcDbEntity
  8
0
  6
Continuous
 62
     7
370
    15
100
AcDbCircle
 10
24.8070130757
 20
39.9102016138
 30
0.0
 40
0.2187499999999929
  0
CIRCLE
  5
3B0
330
1F
100
AcDbEntity
  8
0
  6
Continuous
 62
     7
370
    15
100
AcDbCircle
 10
23.5570130757
 20
39.9102016138
 30
0.0
 40
0.2187500000000071
  0
CIRCLE
  5
3B1
330
1F
100
AcDbEntity
  8
0
  6
Continuous
 62
     7
370
    15
100
AcDbCircle
 10
13.3820130757
 20
39.2852016138
 30
0.0
 40
0.2187499999999982
  0
CIRCLE
  5
3B2
330
1F
100
AcDbEntity
  8
0
  6
Continuous
 62
     7
370
    15
100
AcDbCircle
 10
14.0070130757
 20
39.9102016138
 30
0.0
 40
0.21875
  0
CIRCLE
  5
3B3
330
1F
100
AcDbEntity
  8
0
  6
Continuous
 62
     7
370
    15
100
AcDbCircle
 10
12.7570130757
 20
39.9102016138
 30
0.0
 40
0.2187500000000018
  0
CIRCLE
  5
3B4
330
1F
100
AcDbEntity
  8
0
  6
Continuous
 62
     7
370
    15
100
AcDbCircle
 10
12.7570130757
 20
74.0682016138
 30
0.0
 40
0.2187500000000018
  0
CIRCLE
  5
3B5
330
1F
100
AcDbEntity
  8
0
  6
Continuous
 62
     7
370
    15
100
AcDbCircle
 10
13.3820130757
 20
74.6932016138
 30
0.0
 40
0.21875
  0
CIRCLE
  5
3B6
330
1F
100
AcDbEntity
  8
0
  6
Continuous
 62
     7
370
    15
100
AcDbCircle
 10
14.0070130757
 20
74.0682016138
 30
0.0
 40
0.2187500000000018
  0
CIRCLE
  5
3B7
330
1F
100
AcDbEntity
  8
0
  6
Continuous
 62
     7
370
    15
100
AcDbCircle
 10
23.5570130757
 20
74.0682016138
 30
0.0
 40
0.2187500000000071
  0
CIRCLE
  5
3B8
330
1F
100
AcDbEntity
  8
0
  6
Continuous
 62
     7
370
    15
100
AcDbCircle
 10
24.8070130757
 20
74.0682016138
 30
0.0
 40
0.2187499999999964
  0
CIRCLE
  5
3B9
330
1F
100
AcDbEntity
  8
0
  6
Continuous
 62
     7
370
    15
100
AcDbCircle
 10
24.1820130757
 20
74.6932016138
 30
0.0
 40
0.2187500000000071
  0
LINE
  5
3BA
330
1F
100
AcDbEntity
  8
0
  6
Continuous
 62
     7
370
    15
100
AcDbLine
 10
9.3386506206
 20
75.7092012619
 30
0.0
 11
9.3386506206
 21
38.2692018786
 31
0.0
  0
LINE
  5
3BB
330
1F
100
AcDbEntity
  8
0
  6
Continuous
 62
     7
370
    15
100
AcDbLine
 10
9.0946788263
 20
38.2692018786
 30
0.0
 11
9.0946788263
 21
75.7092012619
 31
0.0
  0
LINE
  5
3BC
330
1F
100
AcDbEntity
  8
0
  6
Continuous
 62
     7
370
    15
100
AcDbLine
 10
11.6624073029
 20
76.4392021088
 30
0.0
 11
11.6624073029
 21
75.7092012619
 31
0.0
  0
LINE
  5
3BD
330
1F
100
AcDbEntity
  8
0
  6
Continuous
 62
     7
370
    15
100
AcDbLine
 10
28.5321033439
 20
76.4392021088
 30
0.0
 11
11.6624073029
 21
76.4392021088
 31
0.0
  0
LINE
  5
3BE
330
1F
100
AcDbEntity
  8
0
  6
Continuous
 62
     7
370
    15
100
AcDbLine
 10
28.5321033439
 20
76.4392021088
 30
0.0
 11
28.5321033439
 21
75.7092012619
 31
0.0
  0
LINE
  5
3BF
330
1F
100
AcDbEntity
  8
0
  6
Continuous
 62
     7
370
    15
100
AcDbLine
 10
28.5321033439
 20
75.7092012619
 30
0.0
 11
11.6624073029
 21
75.7092012619
 31
0.0
  0
LINE
  5
3C0
330
1F
100
AcDbEntity
  8
0
  6
Continuous
 62
     7
370
    15
100
AcDbLine
 10
9.0653285152
 20
76.4392021088
 30
0.0
 11
9.0653285152
 21
75.7092012619
 31
0.0
  0
LINE
  5
3C1
330
1F
100
AcDbEntity
  8
0
  6
Continuous
 62
     7
370
    15
100
AcDbLine
 10
11.6624073029
 20
76.4392021088
 30
0.0
 11
9.0653285152
 21
76.4392021088
 31
0.0
  0
LINE
  5
3C2
330
1F
100
AcDbEntity
  8
0
  6
Continuous
 62
     7
370
    15
100
AcDbLine
 10
11.6624073029
 20
75.7092012619
 30
0.0
 11
9.0653285152
 21
75.7092012619
 31
0.0
  0
LINE
  5
3C3
330
1F
100
AcDbEntity
  8
0
  6
Continuous
 62
     7
370
    15
100
AcDbLine
 10
28.5321033439
 20
37.5392010316
 30
0.0
 11
28.5321033439
 21
38.2692018786
 31
0.0
  0
LINE
  5
3C4
330
1F
100
AcDbEntity
  8
0
  6
Continuous
 62
     7
370
    15
100
AcDbLine
 10
11.6624073029
 20
37.5392010316
 30
0.0
 11
28.5321033439
 21
37.5392010316
 31
0.0
  0
LINE
  5
3C5
330
1F
100
AcDbEntity
  8
0
  6
Continuous
 62
     7
370
    15
100
AcDbLine
 10
11.6624073029
 20
37.5392010316
 30
0.0
 11
11.6624073029
 21
38.2692018786
 31
0.0
  0
LINE
  5
3C6
330
1F
100
AcDbEntity
  8
0
  6
Continuous
 62
     7
370
    15
100
AcDbLine
 10
11.6624073029
 20
38.2692018786
 30
0.0
 11
28.5321033439
 21
38.2692018786
 31
0.0
  0
LINE
  5
3C7
330
1F
100
AcDbEntity
  8
0
  6
Continuous
 62
     7
370
    15
100
AcDbLine
 10
9.0653285152
 20
37.5392010316
 30
0.0
 11
9.0653285152
 21
38.2692018786
 31
0.0
  0
LINE
  5
3C8
330
1F
100
AcDbEntity
  8
0
  6
Continuous
 62
     7
370
    15
100
AcDbLine
 10
9.0653285152
 20
37.5392010316
 30
0.0
 11
11.6624073029
 21
37.5392010316
 31
0.0
  0
LINE
  5
3C9
330
1F
100
AcDbEntity
  8
0
  6
Continuous
 62
     7
370
    15
100
AcDbLine
 10
9.0653285152
 20
38.2692018786
 30
0.0
 11
11.6624073029
 21
38.2692018786
 31
0.0
  0
LWPOLYLINE
  5
3CA
330
1F
100
AcDbEntity
  8
0
  6
Continuous
 62
     7
370
    15
100
AcDbPolyline
 90
        9
 70
   128
 43
0.0
 10
11.0897892923
 20
61.1465017581
 10
11.1084537417
 20
61.1416978936
 10
11.1264008975
 20
61.1274713913
 10
11.1429410804
 20
61.1043690181
 10
11.1574387165
 20
61.0732783906
 10
11.1693366968
 20
61.0353942416
 10
11.1781775923
 20
60.9921723676
 10
11.183621839
 20
60.9452741893
 10
11.1854600861
 20
60.8965016328
  0
LINE
  5
3CB
330
1F
100
AcDbEntity
  8
0
  6
Continuous
 62
     7
370
    15
100
AcDbLine
 10
11.0897892923
 20
61.1465017581
 30
0.0
 11
9.7580508819
 21
61.1465017581
 31
0.0
  0
LWPOLYLINE
  5
3CC
330
1F
100
AcDbEntity
  8
0
  6
Continuous
 62
     7
370
    15
100
AcDbPolyline
 90
        9
 70
   128
 43
0.0
 10
9.6623800319
 20
60.8965016328
 10
9.6642183352
 20
60.9452741893
 10
9.6696625538
 20
60.9921723676
 10
9.6785034773
 20
61.0353942416
 10
9.6904013735
 20
61.0732783906
 10
9.7048990096
 20
61.1043690181
 10
9.7214392486
 20
61.1274713913
 10
9.7393864325
 20
61.1416978936
 10
9.7580508819
 20
61.1465017581
  0
LINE
  5
3CD
330
1F
100
AcDbEntity
  8
0
  6
Continuous
 62
     7
370
    15
100
AcDbLine
 10
9.6623800319
 20
60.8965016328
 30
0.0
 11
9.6623800319
 21
58.0115016005
 31
0.0
  0
LWPOLYLINE
  5
3CE
330
1F
100
AcDbEntity
  8
0
  6
Continuous
 62
     7
370
    15
100
AcDbPolyline
 90
        9
 70
   128
 43
0.0
 10
9.7580508819
 20
57.7615016219
 10
9.7393864325
 20
57.7663053397
 10
9.7214392486
 20
57.7805316954
 10
9.7048990096
 20
57.8036342152
 10
9.6904013735
 20
57.8347249893
 10
9.6785034773
 20
57.8726089917
 10
9.6696625538
 20
57.9158307191
 10
9.6642183352
 20
57.962729044
 10
9.6623800319
 20
58.0115016005
  0
LINE
  5
3CF
330
1F
100
AcDbEntity
  8
0
  6
Continuous
 62
     7
370
    15
100
AcDbLine
 10
9.7580508819
 20
57.7615016219
 30
0.0
 11
11.0897892923
 21
57.7615016219
 31
0.0
  0
LWPOLYLINE
  5
3D0
330
1F
100
AcDbEntity
  8
0
  6
Continuous
 62
     7
370
    15
100
AcDbPolyline
 90
        9
 70
   128
 43
0.0
 10
11.1854600861
 20
58.0115016005
 10
11.183621839
 20
57.962729044
 10
11.1781775923
 20
57.9158307191
 10
11.1693366968
 20
57.8726089917
 10
11.1574387165
 20
57.8347249893
 10
11.1429410804
 20
57.8036342152
 10
11.1264008975
 20
57.7805316954
 10
11.1084537417
 20
57.7663053397
 10
11.0897892923
 20
57.7615016219
  0
LINE
  5
3D1
330
1F
100
AcDbEntity
  8
0
  6
Continuous
 62
     7
370
    15
100
AcDbLine
 10
11.1854600861
 20
58.0115016005
 30
0.0
 11
11.1854600861
 21
60.8965016328
 31
0.0
  0
ARC
  5
3D2
330
1F
100
AcDbEntity
  8
0
  6
Continuous
 62
     7
370
    15
100
AcDbCircle
 10
9.9515761722
 20
57.8401744041
 30
0.0
 40
0.0807030440008582
100
AcDbArc
 50
200.5398451913
 51
257.1209631745
  0
ARC
  5
3D3
330
1F
100
AcDbEntity
  8
0
  6
Continuous
 62
     7
370
    15
100
AcDbCircle
 10
9.9513797216
 20
61.0681965239
 30
0.0
 40
0.0803010295977145
100
AcDbArc
 50
102.8008469584
 51
159.0876018024
  0
LINE
  5
3D4
330
1F
100
AcDbEntity
  8
0
  6
Continuous
 62
     8
370
    15
100
AcDbLine
 10
9.7074921665
 20
60.8965016328
 30
0.0
 11
9.6623800319
 21
60.8965016328
 31
0.0
  0
LINE
  5
3D5
330
1F
100
AcDbEntity
  8
0
  6
Continuous
 62
     8
370
    15
100
AcDbLine
 10
9.6623800319
 20
58.0115016005
 30
0.0
 11
9.7074921665
 21
58.0115016005
 31
0.0
  0
ENDSEC
  0
SECTION
  2
OBJECTS
  0
DICTIONARY
  5
C
330
0
100
AcDbDictionary
281
     1
  3
ACAD_DETAILVIEWSTYLE
350
3DA
  3
ACAD_GROUP
350
D
  3
ACAD_LAYOUT
350
1A
  3
ACAD_MATERIAL
350
43
  3
ACAD_MLEADERSTYLE
350
3D9
  3
ACAD_MLINESTYLE
350
17
  3
ACAD_PLOTSETTINGS
350
19
  3
ACAD_PLOTSTYLENAME
350
E
  3
ACAD_SCALELIST
350
47
  3
ACAD_SECTIONVIEWSTYLE
350
3DB
  3
ACAD_TABLESTYLE
350
3D8
  3
ACAD_VISUALSTYLE
350
2A
  3
AcDbVariableDictionary
350
3D6
  0
SUN
  5
69
330
29
100
AcDbSun
 90
        1
290
     0
 63
     7
421
 16777215
 40
1.0
291
     1
 91
  2455826
 92
 54000000
292
     0
 70
     2
 71
   256
280
     1
  0
DICTIONARY
  5
3DA
102
{ACAD_REACTORS
330
C
102
}
330
C
100
AcDbDictionary
281
     1
  0
DICTIONARY
  5
D
102
{ACAD_REACTORS
330
C
102
}
330
C
100
AcDbDictionary
281
     1
  0
DICTIONARY
  5
1A
102
{ACAD_REACTORS
330
C
102
}
330
C
100
AcDbDictionary
281
     1
  3
Layout1
350
1E
  3
Layout2
350
26
  3
Model
350
22
  0
DICTIONARY
  5
43
102
{ACAD_REACTORS
330
C
102
}
330
C
100
AcDbDictionary
281
     1
  3
ByBlock
350
45
  3
ByLayer
350
44
  3
Global
350
46
  0
DICTIONARY
  5
3D9
102
{ACAD_REACTORS
330
C
102
}
330
C
100
AcDbDictionary
281
     1
  0
DICTIONARY
  5
17
102
{ACAD_REACTORS
330
C
102
}
330
C
100
AcDbDictionary
281
     1
  3
Standard
350
18
  0
DICTIONARY
  5
19
102
{ACAD_REACTORS
330
C
102
}
330
C
100
AcDbDictionary
281
     1
  0
ACDBDICTIONARYWDFLT
  5
E
102
{ACAD_REACTORS
330
C
102
}
330
C
100
AcDbDictionary
281
     1
  3
Normal
350
F
100
AcDbDictionaryWithDefault
340
F
  0
DICTIONARY
  5
47
102
{ACAD_REACTORS
330
C
102
}
330
C
100
AcDbDictionary
281
     1
  3
A0
350
48
  3
A1
350
49
  3
A2
350
4A
  3
A3
350
4B
  3
A4
350
4C
  3
A5
350
4D
  3
A6
350
4E
  3
A7
350
4F
  3
A8
350
50
  3
A9
350
51
  3
B0
350
52
  3
B1
350
53
  3
B2
350
54
  3
B3
350
55
  3
B4
350
56
  3
B5
350
57
  3
B6
350
58
  3
B7
350
59
  3
B8
350
5A
  3
B9
350
5B
  3
C0
350
5C
  3
C1
350
5D
  3
C2
350
5E
  3
C3
350
5F
  3
C4
350
60
  3
C5
350
61
  3
C6
350
62
  3
C7
350
63
  3
C8
350
64
  3
C9
350
65
  3
D0
350
66
  3
D1
350
67
  3
D2
350
68
  0
DICTIONARY
  5
3DB
102
{ACAD_REACTORS
330
C
102
}
330
C
100
AcDbDictionary
281
     1
  0
DICTIONARY
  5
3D8
102
{ACAD_REACTORS
330
C
102
}
330
C
100
AcDbDictionary
281
     1
  0
DICTIONARY
  5
2A
102
{ACAD_REACTORS
330
C
102
}
330
C
100
AcDbDictionary
281
     1
  3
2dWireframe
350
2F
  3
Basic
350
32
  3
Brighten
350
36
  3
ColorChange
350
3A
  3
Conceptual
350
34
  3
Dim
350
35
  3
EdgeColorOff
350
3D
  3
Facepattern
350
39
  3
Flat
350
2B
  3
FlatWithEdges
350
2C
  3
Gouraud
350
2D
  3
GouraudWithEdges
350
2E
  3
Hidden
350
31
  3
JitterOff
350
3B
  3
Linepattern
350
38
  3
OverhangOff
350
3C
  3
Realistic
350
33
  3
Shaded
350
42
  3
Shaded with edges
350
41
  3
Shades of Gray
350
3E
  3
Sketchy
350
3F
  3
Thicken
350
37
  3
Wireframe
350
30
  3
X-Ray
350
40
  0
DICTIONARY
  5
3D6
102
{ACAD_REACTORS
330
C
102
}
330
C
100
AcDbDictionary
281
     1
  3
CANNOSCALE
350
3D7
  0
LAYOUT
  5
1E
102
{ACAD_REACTORS
330
1A
102
}
330
1A
100
AcDbPlotSettings
  1

  2
none_device
  4

  6

 40
0.0
 41
0.0
 42
0.0
 43
0.0
 44
0.0
 45
0.0
 46
0.0
 47
0.0
 48
0.0
 49
0.0
140
0.0
141
0.0
142
1.0
143
1.0
 70
   688
 72
     0
 73
     0
 74
     5
  7

 75
    16
 76
     0
 77
     2
 78
   300
147
1.0
148
0.0
149
0.0
100
AcDbLayout
  1
Layout1
 70
     1
 71
     1
 10
0.0
 20
0.0
 11
12.0
 21
9.0
 12
0.0
 22
0.0
 32
0.0
 14
1.0000000000E+20
 24
1.0000000000E+20
 34
1.0000000000E+20
 15
-1.0000000000E+20
 25
-1.0000000000E+20
 35
-1.0000000000E+20
146
0.0
 13
0.0
 23
0.0
 33
0.0
 16
1.0
 26
0.0
 36
0.0
 17
0.0
 27
1.0
 37
0.0
 76
     0
330
1B
  0
LAYOUT
  5
26
102
{ACAD_REACTORS
330
1A
102
}
330
1A
100
AcDbPlotSettings
  1

  2
none_device
  4

  6

 40
0.0
 41
0.0
 42
0.0
 43
0.0
 44
0.0
 45
0.0
 46
0.0
 47
0.0
 48
0.0
 49
0.0
140
0.0
141
0.0
142
1.0
143
1.0
 70
   688
 72
     0
 73
     0
 74
     5
  7

 75
    16
 76
     0
 77
     2
 78
   300
147
1.0
148
0.0
149
0.0
100
AcDbLayout
  1
Layout2
 70
     1
 71
     2
 10
0.0
 20
0.0
 11
0.0
 21
0.0
 12
0.0
 22
0.0
 32
0.0
 14
0.0
 24
0.0
 34
0.0
 15
0.0
 25
0.0
 35
0.0
146
0.0
 13
0.0
 23
0.0
 33
0.0
 16
1.0
 26
0.0
 36
0.0
 17
0.0
 27
1.0
 37
0.0
 76
     0
330
23
  0
LAYOUT
  5
22
102
{ACAD_REACTORS
330
1A
102
}
330
1A
100
AcDbPlotSettings
  1

  2
none_device
  4
Letter_(8.50_x_11.00_Inches)
  6

 40
6.35
 41
6.35
 42
6.35000508
 43
6.35000508
 44
215.9
 45
279.4
 46
0.0
 47
0.0
 48
0.0
 49
0.0
140
0.0
141
0.0
142
1.0
143
1.0
 70
  1712
 72
     0
 73
     0
 74
     0
  7

 75
     0
 76
     0
 77
     2
 78
   300
147
1.0
148
0.0
149
0.0
100
AcDbLayout
  1
Model
 70
     1
 71
     0
 10
0.0
 20
0.0
 11
118.1102362205
 21
118.1102362205
 12
0.0
 22
0.0
 32
0.0
 14
0.0
 24
0.0
 34
0.0
 15
118.1102362205
 25
118.1102362205
 35
0.0
146
0.0
 13
0.0
 23
0.0
 33
0.0
 16
1.0
 26
0.0
 36
0.0
 17
0.0
 27
1.0
 37
0.0
 76
     0
330
1F
331
29
  0
MATERIAL
  5
45
102
{ACAD_REACTORS
330
43
102
}
330
43
100
AcDbMaterial
  1
ByBlock
 72
     1
 94
      127
  0
MATERIAL
  5
44
102
{ACAD_REACTORS
330
43
102
}
330
43
100
AcDbMaterial
  1
ByLayer
 72
     1
 94
      127
  0
MATERIAL
  5
46
102
{ACAD_REACTORS
330
43
102
}
330
43
100
AcDbMaterial
  1
Global
 72
     1
 94
      127
  0
MLINESTYLE
  5
18
102
{ACAD_REACTORS
330
17
102
}
330
17
100
AcDbMlineStyle
  2
Standard
 70
     0
  3

 62
   256
 51
90.0
 52
90.0
 71
     2
 49
0.5
 62
   256
  6
BYLAYER
 49
-0.5
 62
   256
  6
BYLAYER
  0
ACDBPLACEHOLDER
  5
F
102
{ACAD_REACTORS
330
E
102
}
330
E
  0
SCALE
  5
48
102
{ACAD_REACTORS
330
47
102
}
330
47
100
AcDbScale
 70
     0
300
1:1
140
1.0
141
1.0
290
     1
  0
SCALE
  5
49
102
{ACAD_REACTORS
330
47
102
}
330
47
100
AcDbScale
 70
     0
300
1:2
140
1.0
141
2.0
290
     0
  0
SCALE
  5
4A
102
{ACAD_REACTORS
330
47
102
}
330
47
100
AcDbScale
 70
     0
300
1:4
140
1.0
141
4.0
290
     0
  0
SCALE
  5
4B
102
{ACAD_REACTORS
330
47
102
}
330
47
100
AcDbScale
 70
     0
300
1:5
140
1.0
141
5.0
290
     0
  0
SCALE
  5
4C
102
{ACAD_REACTORS
330
47
102
}
330
47
100
AcDbScale
 70
     0
300
1:8
140
1.0
141
8.0
290
     0
  0
SCALE
  5
4D
102
{ACAD_REACTORS
330
47
102
}
330
47
100
AcDbScale
 70
     0
300
1:10
140
1.0
141
10.0
290
     0
  0
SCALE
  5
4E
102
{ACAD_REACTORS
330
47
102
}
330
47
100
AcDbScale
 70
     0
300
1:16
140
1.0
141
16.0
290
     0
  0
SCALE
  5
4F
102
{ACAD_REACTORS
330
47
102
}
330
47
100
AcDbScale
 70
     0
300
1:20
140
1.0
141
20.0
290
     0
  0
SCALE
  5
50
102
{ACAD_REACTORS
330
47
102
}
330
47
100
AcDbScale
 70
     0
300
1:30
140
1.0
141
30.0
290
     0
  0
SCALE
  5
51
102
{ACAD_REACTORS
330
47
102
}
330
47
100
AcDbScale
 70
     0
300
1:40
140
1.0
141
40.0
290
     0
  0
SCALE
  5
52
102
{ACAD_REACTORS
330
47
102
}
330
47
100
AcDbScale
 70
     0
300
1:50
140
1.0
141
50.0
290
     0
  0
SCALE
  5
53
102
{ACAD_REACTORS
330
47
102
}
330
47
100
AcDbScale
 70
     0
300
1:100
140
1.0
141
100.0
290
     0
  0
SCALE
  5
54
102
{ACAD_REACTORS
330
47
102
}
330
47
100
AcDbScale
 70
     0
300
2:1
140
2.0
141
1.0
290
     0
  0
SCALE
  5
55
102
{ACAD_REACTORS
330
47
102
}
330
47
100
AcDbScale
 70
     0
300
4:1
140
4.0
141
1.0
290
     0
  0
SCALE
  5
56
102
{ACAD_REACTORS
330
47
102
}
330
47
100
AcDbScale
 70
     0
300
8:1
140
8.0
141
1.0
290
     0
  0
SCALE
  5
57
102
{ACAD_REACTORS
330
47
102
}
330
47
100
AcDbScale
 70
     0
300
10:1
140
10.0
141
1.0
290
     0
  0
SCALE
  5
58
102
{ACAD_REACTORS
330
47
102
}
330
47
100
AcDbScale
 70
     0
300
100:1
140
100.0
141
1.0
290
     0
  0
SCALE
  5
59
102
{ACAD_REACTORS
330
47
102
}
330
47
100
AcDbScale
 70
     0
300
1/128" = 1'-0"
140
0.0078125
141
12.0
290
     0
  0
SCALE
  5
5A
102
{ACAD_REACTORS
330
47
102
}
330
47
100
AcDbScale
 70
     0
300
1/64" = 1'-0"
140
0.015625
141
12.0
290
     0
  0
SCALE
  5
5B
102
{ACAD_REACTORS
330
47
102
}
330
47
100
AcDbScale
 70
     0
300
1/32" = 1'-0"
140
0.03125
141
12.0
290
     0
  0
SCALE
  5
5C
102
{ACAD_REACTORS
330
47
102
}
330
47
100
AcDbScale
 70
     0
300
1/16" = 1'-0"
140
0.0625
141
12.0
290
     0
  0
SCALE
  5
5D
102
{ACAD_REACTORS
330
47
102
}
330
47
100
AcDbScale
 70
     0
300
3/32" = 1'-0"
140
0.09375
141
12.0
290
     0
  0
SCALE
  5
5E
102
{ACAD_REACTORS
330
47
102
}
330
47
100
AcDbScale
 70
     0
300
1/8" = 1'-0"
140
0.125
141
12.0
290
     0
  0
SCALE
  5
5F
102
{ACAD_REACTORS
330
47
102
}
330
47
100
AcDbScale
 70
     0
300
3/16" = 1'-0"
140
0.1875
141
12.0
290
     0
  0
SCALE
  5
60
102
{ACAD_REACTORS
330
47
102
}
330
47
100
AcDbScale
 70
     0
300
1/4" = 1'-0"
140
0.25
141
12.0
290
     0
  0
SCALE
  5
61
102
{ACAD_REACTORS
330
47
102
}
330
47
100
AcDbScale
 70
     0
300
3/8" = 1'-0"
140
0.375
141
12.0
290
     0
  0
SCALE
  5
62
102
{ACAD_REACTORS
330
47
102
}
330
47
100
AcDbScale
 70
     0
300
1/2" = 1'-0"
140
0.5
141
12.0
290
     0
  0
SCALE
  5
63
102
{ACAD_REACTORS
330
47
102
}
330
47
100
AcDbScale
 70
     0
300
3/4" = 1'-0"
140
0.75
141
12.0
290
     0
  0
SCALE
  5
64
102
{ACAD_REACTORS
330
47
102
}
330
47
100
AcDbScale
 70
     0
300
1" = 1'-0"
140
1.0
141
12.0
290
     0
  0
SCALE
  5
65
102
{ACAD_REACTORS
330
47
102
}
330
47
100
AcDbScale
 70
     0
300
1-1/2" = 1'-0"
140
1.5
141
12.0
290
     0
  0
SCALE
  5
66
102
{ACAD_REACTORS
330
47
102
}
330
47
100
AcDbScale
 70
     0
300
3" = 1'-0"
140
3.0
141
12.0
290
     0
  0
SCALE
  5
67
102
{ACAD_REACTORS
330
47
102
}
330
47
100
AcDbScale
 70
     0
300
6" = 1'-0"
140
6.0
141
12.0
290
     0
  0
SCALE
  5
68
102
{ACAD_REACTORS
330
47
102
}
330
47
100
AcDbScale
 70
     0
300
1'-0" = 1'-0"
140
12.0
141
12.0
290
     0
  0
VISUALSTYLE
  5
2F
102
{ACAD_REACTORS
330
2A
102
}
330
2A
100
AcDbVisualStyle
  2
2dWireframe
 70
     4
177
     2
291
     0
 71
     0
176
     1
 72
     2
176
     1
 73
     0
176
     1
 90
        0
176
     1
 40
0.6
176
     1
 41
30.0
176
     1
 62
     5
 63
     7
421
 16777215
176
     1
 74
     1
176
     1
 91
        4
176
     1
 64
     7
176
     1
 65
   257
176
     1
 75
     1
176
     1
175
     1
176
     1
 42
1.0
176
     1
 92
        0
176
     1
 66
   257
176
     1
 43
1.0
176
     1
 76
     1
176
     1
 77
     6
176
     1
 78
     2
176
     1
 67
     7
176
     1
 79
     5
176
     1
170
     0
176
     1
171
     0
176
     1
290
     0
176
     1
 93
        1
176
     1
 44
0.0
176
     1
173
     0
176
     1
  0
VISUALSTYLE
  5
32
102
{ACAD_REACTORS
330
2A
102
}
330
2A
100
AcDbVisualStyle
  2
Basic
 70
     7
177
     2
291
     1
 71
     1
176
     1
 72
     0
176
     1
 73
     1
176
     1
 90
        0
176
     1
 40
0.6
176
     1
 41
30.0
176
     1
 62
     5
 63
     7
421
 16777215
176
     1
 74
     0
176
     1
 91
        4
176
     1
 64
     7
176
     1
 65
   257
176
     1
 75
     1
176
     1
175
     1
176
     1
 42
1.0
176
     1
 92
        8
176
     1
 66
     7
176
     1
 43
1.0
176
     1
 76
     1
176
     1
 77
     6
176
     1
 78
     2
176
     1
 67
     7
176
     1
 79
     5
176
     1
170
     0
176
     1
171
     0
176
     1
290
     0
176
     1
 93
        1
176
     1
 44
0.0
176
     1
173
     0
176
     1
  0
VISUALSTYLE
  5
36
102
{ACAD_REACTORS
330
2A
102
}
330
2A
100
AcDbVisualStyle
  2
Brighten
 70
    12
177
     2
291
     1
 71
     2
176
     1
 72
     2
176
     1
 73
     0
176
     1
 90
        0
176
     1
 40
0.6
176
     1
 41
30.0
176
     1
 62
     5
 63
     7
421
 16777215
176
     1
 74
     1
176
     1
 91
        4
176
     1
 64
     7
176
     1
 65
   257
176
     1
 75
     1
176
     1
175
     1
176
     1
 42
1.0
176
     1
 92
        8
176
     1
 66
     7
176
     1
 43
1.0
176
     1
 76
     1
176
     1
 77
     6
176
     1
 78
     2
176
     1
 67
     7
176
     1
 79
     5
176
     1
170
     0
176
     1
171
     0
176
     1
290
     0
176
     1
 93
        1
176
     1
 44
50.0
176
     1
173
     0
176
     1
  0
VISUALSTYLE
  5
3A
102
{ACAD_REACTORS
330
2A
102
}
330
2A
100
AcDbVisualStyle
  2
ColorChange
 70
    16
177
     2
291
     1
 71
     2
176
     1
 72
     2
176
     1
 73
     3
176
     1
 90
        0
176
     1
 40
0.6
176
     1
 41
30.0
176
     1
 62
     5
 63
     8
421
  8421504
176
     1
 74
     1
176
     1
 91
        4
176
     1
 64
     7
176
     1
 65
   257
176
     1
 75
     1
176
     1
175
     1
176
     1
 42
1.0
176
     1
 92
        8
176
     1
 66
     8
424
  8421504
176
     1
 43
1.0
176
     1
 76
     1
176
     1
 77
     6
176
     1
 78
     2
176
     1
 67
     7
176
     1
 79
     5
176
     1
170
     0
176
     1
171
     0
176
     1
290
     0
176
     1
 93
        1
176
     1
 44
0.0
176
     1
173
     0
176
     1
  0
VISUALSTYLE
  5
34
102
{ACAD_REACTORS
330
2A
102
}
330
2A
100
AcDbVisualStyle
  2
Conceptual
 70
     9
177
     2
291
     0
 71
     3
176
     1
 72
     2
176
     1
 73
     0
176
     1
 90
        0
176
     1
 40
0.6
176
     1
 41
30.0
176
     1
 62
     5
 63
     7
421
 16777215
176
     1
 74
     2
176
     1
 91
        2
176
     1
 64
     7
176
     1
 65
   257
176
     1
 75
     1
176
     1
175
     1
176
     1
 42
179.0
176
     1
 92
        8
176
     1
 66
     7
176
     1
 43
1.0
176
     1
 76
     1
176
     1
 77
     6
176
     1
 78
     2
176
     1
 67
     7
176
     1
 79
     3
176
     1
170
     0
176
     1
171
     0
176
     1
290
     0
176
     1
 93
        1
176
     1
 44
0.0
176
     1
173
     0
176
     1
  0
VISUALSTYLE
  5
35
102
{ACAD_REACTORS
330
2A
102
}
330
2A
100
AcDbVisualStyle
  2
Dim
 70
    11
177
     2
291
     1
 71
     2
176
     1
 72
     2
176
     1
 73
     0
176
     1
 90
        0
176
     1
 40
0.6
176
     1
 41
30.0
176
     1
 62
     5
 63
     7
421
 16777215
176
     1
 74
     1
176
     1
 91
        4
176
     1
 64
     7
176
     1
 65
   257
176
     1
 75
     1
176
     1
175
     1
176
     1
 42
1.0
176
     1
 92
        8
176
     1
 66
     7
176
     1
 43
1.0
176
     1
 76
     1
176
     1
 77
     6
176
     1
 78
     2
176
     1
 67
     7
176
     1
 79
     5
176
     1
170
     0
176
     1
171
     0
176
     1
290
     0
176
     1
 93
        1
176
     1
 44
-50.0
176
     1
173
     0
176
     1
  0
VISUALSTYLE
  5
3D
102
{ACAD_REACTORS
330
2A
102
}
330
2A
100
AcDbVisualStyle
  2
EdgeColorOff
 70
    22
177
     2
291
     1
 71
     2
176
     0
 72
     2
176
     0
 73
     0
176
     0
 90
        0
176
     0
 40
0.6
176
     0
 41
30.0
176
     0
 62
     5
 63
     7
421
 16777215
176
     0
 74
     1
176
     0
 91
        4
176
     0
 64
     7
176
     0
 65
   257
176
     0
 75
     1
176
     0
175
     1
176
     0
 42
1.0
176
     0
 92
        8
176
     2
 66
     7
176
     0
 43
1.0
176
     0
 76
     1
176
     0
 77
     6
176
     0
 78
     2
176
     0
 67
     7
176
     0
 79
     5
176
     0
170
     0
176
     0
171
     0
176
     0
290
     0
176
     0
 93
        1
176
     0
 44
0.0
176
     0
173
     0
176
     0
  0
VISUALSTYLE
  5
39
102
{ACAD_REACTORS
330
2A
102
}
330
2A
100
AcDbVisualStyle
  2
Facepattern
 70
    15
177
     2
291
     1
 71
     2
176
     1
 72
     2
176
     1
 73
     0
176
     1
 90
        0
176
     1
 40
0.6
176
     1
 41
30.0
176
     1
 62
     5
 63
     7
421
 16777215
176
     1
 74
     1
176
     1
 91
        4
176
     1
 64
     7
176
     1
 65
   257
176
     1
 75
     1
176
     1
175
     1
176
     1
 42
1.0
176
     1
 92
        8
176
     1
 66
     7
176
     1
 43
1.0
176
     1
 76
     1
176
     1
 77
     6
176
     1
 78
     2
176
     1
 67
     7
176
     1
 79
     5
176
     1
170
     0
176
     1
171
     0
176
     1
290
     0
176
     1
 93
        1
176
     1
 44
0.0
176
     1
173
     0
176
     1
  0
VISUALSTYLE
  5
2B
102
{ACAD_REACTORS
330
2A
102
}
330
2A
100
AcDbVisualStyle
  2
Flat
 70
     0
177
     2
291
     1
 71
     2
176
     1
 72
     1
176
     1
 73
     1
176
     1
 90
        2
176
     1
 40
0.6
176
     1
 41
30.0
176
     1
 62
     5
 63
     7
421
 16777215
176
     1
 74
     0
176
     1
 91
        0
176
     1
 64
     7
176
     1
 65
   257
176
     1
 75
     1
176
     1
175
     1
176
     1
 42
1.0
176
     1
 92
        8
176
     1
 66
     7
176
     1
 43
1.0
176
     1
 76
     1
176
     1
 77
     6
176
     1
 78
     2
176
     1
 67
     7
176
     1
 79
     5
176
     1
170
     0
176
     1
171
     0
176
     1
290
     0
176
     1
 93
       13
176
     1
 44
0.0
176
     1
173
     0
176
     1
  0
VISUALSTYLE
  5
2C
102
{ACAD_REACTORS
330
2A
102
}
330
2A
100
AcDbVisualStyle
  2
FlatWithEdges
 70
     1
177
     2
291
     1
 71
     2
176
     1
 72
     1
176
     1
 73
     1
176
     1
 90
        2
176
     1
 40
0.6
176
     1
 41
30.0
176
     1
 62
     5
 63
     7
421
 16777215
176
     1
 74
     1
176
     1
 91
        0
176
     1
 64
     7
176
     1
 65
   257
176
     1
 75
     1
176
     1
175
     1
176
     1
 42
1.0
176
     1
 92
        0
176
     1
 66
   257
176
     1
 43
1.0
176
     1
 76
     1
176
     1
 77
     6
176
     1
 78
     2
176
     1
 67
     7
176
     1
 79
     5
176
     1
170
     0
176
     1
171
     0
176
     1
290
     0
176
     1
 93
       13
176
     1
 44
0.0
176
     1
173
     0
176
     1
  0
VISUALSTYLE
  5
2D
102
{ACAD_REACTORS
330
2A
102
}
330
2A
100
AcDbVisualStyle
  2
Gouraud
 70
     2
177
     2
291
     1
 71
     2
176
     1
 72
     2
176
     1
 73
     1
176
     1
 90
        2
176
     1
 40
0.6
176
     1
 41
30.0
176
     1
 62
     5
 63
     7
421
 16777215
176
     1
 74
     0
176
     1
 91
        0
176
     1
 64
     7
176
     1
 65
   257
176
     1
 75
     1
176
     1
175
     1
176
     1
 42
1.0
176
     1
 92
        0
176
     1
 66
     7
176
     1
 43
1.0
176
     1
 76
     1
176
     1
 77
     6
176
     1
 78
     2
176
     1
 67
     7
176
     1
 79
     5
176
     1
170
     0
176
     1
171
     0
176
     1
290
     0
176
     1
 93
       13
176
     1
 44
0.0
176
     1
173
     0
176
     1
  0
VISUALSTYLE
  5
2E
102
{ACAD_REACTORS
330
2A
102
}
330
2A
100
AcDbVisualStyle
  2
GouraudWithEdges
 70
     3
177
     2
291
     1
 71
     2
176
     1
 72
     2
176
     1
 73
     1
176
     1
 90
        2
176
     1
 40
0.6
176
     1
 41
30.0
176
     1
 62
     5
 63
     7
421
 16777215
176
     1
 74
     1
176
     1
 91
        0
176
     1
 64
     7
176
     1
 65
   257
176
     1
 75
     1
176
     1
175
     1
176
     1
 42
1.0
176
     1
 92
        0
176
     1
 66
   257
176
     1
 43
1.0
176
     1
 76
     1
176
     1
 77
     6
176
     1
 78
     2
176
     1
 67
     7
176
     1
 79
     5
176
     1
170
     0
176
     1
171
     0
176
     1
290
     0
176
     1
 93
       13
176
     1
 44
0.0
176
     1
173
     0
176
     1
  0
VISUALSTYLE
  5
31
102
{ACAD_REACTORS
330
2A
102
}
330
2A
100
AcDbVisualStyle
  2
Hidden
 70
     6
177
     2
291
     0
 71
     1
176
     1
 72
     2
176
     1
 73
     2
176
     1
 90
        0
176
     1
 40
0.6
176
     1
 41
30.0
176
     1
 62
     5
 63
     7
421
 16777215
176
     1
 74
     2
176
     1
 91
        2
176
     1
 64
     7
176
     1
 65
   257
176
     1
 75
     2
176
     1
175
     1
176
     1
 42
40.0
176
     1
 92
        0
176
     1
 66
   257
176
     1
 43
1.0
176
     1
 76
     1
176
     1
 77
     6
176
     1
 78
     2
176
     1
 67
     7
176
     1
 79
     3
176
     1
170
     0
176
     1
171
     0
176
     1
290
     0
176
     1
 93
        1
176
     1
 44
0.0
176
     1
173
     0
176
     1
  0
VISUALSTYLE
  5
3B
102
{ACAD_REACTORS
330
2A
102
}
330
2A
100
AcDbVisualStyle
  2
JitterOff
 70
    20
177
     2
291
     1
 71
     2
176
     0
 72
     2
176
     0
 73
     0
176
     0
 90
        0
176
     0
 40
0.6
176
     0
 41
30.0
176
     0
 62
     5
 63
     7
421
 16777215
176
     0
 74
     1
176
     0
 91
        4
176
     0
 64
     7
176
     0
 65
   257
176
     0
 75
     1
176
     0
175
     1
176
     0
 42
1.0
176
     0
 92
       10
176
     2
 66
     7
176
     0
 43
1.0
176
     0
 76
     1
176
     0
 77
     6
176
     0
 78
     2
176
     0
 67
     7
176
     0
 79
     5
176
     0
170
     0
176
     0
171
     0
176
     0
290
     0
176
     0
 93
        1
176
     0
 44
0.0
176
     0
173
     0
176
     0
  0
VISUALSTYLE
  5
38
102
{ACAD_REACTORS
330
2A
102
}
330
2A
100
AcDbVisualStyle
  2
Linepattern
 70
    14
177
     2
291
     1
 71
     2
176
     1
 72
     2
176
     1
 73
     0
176
     1
 90
        0
176
     1
 40
0.6
176
     1
 41
30.0
176
     1
 62
     5
 63
     7
421
 16777215
176
     1
 74
     1
176
     1
 91
        4
176
     1
 64
     7
176
     1
 65
   257
176
     1
 75
     7
176
     1
175
     7
176
     1
 42
1.0
176
     1
 92
        8
176
     1
 66
     7
176
     1
 43
1.0
176
     1
 76
     1
176
     1
 77
     6
176
     1
 78
     2
176
     1
 67
     7
176
     1
 79
     5
176
     1
170
     0
176
     1
171
     0
176
     1
290
     0
176
     1
 93
        1
176
     1
 44
0.0
176
     1
173
     0
176
     1
  0
VISUALSTYLE
  5
3C
102
{ACAD_REACTORS
330
2A
102
}
330
2A
100
AcDbVisualStyle
  2
OverhangOff
 70
    21
177
     2
291
     1
 71
     2
176
     0
 72
     2
176
     0
 73
     0
176
     0
 90
        0
176
     0
 40
0.6
176
     0
 41
30.0
176
     0
 62
     5
 63
     7
421
 16777215
176
     0
 74
     1
176
     0
 91
        4
176
     0
 64
     7
176
     0
 65
   257
176
     0
 75
     1
176
     0
175
     1
176
     0
 42
1.0
176
     0
 92
        9
176
     2
 66
     7
176
     0
 43
1.0
176
     0
 76
     1
176
     0
 77
     6
176
     0
 78
     2
176
     0
 67
     7
176
     0
 79
     5
176
     0
170
     0
176
     0
171
     0
176
     0
290
     0
176
     0
 93
        1
176
     0
 44
0.0
176
     0
173
     0
176
     0
  0
VISUALSTYLE
  5
33
102
{ACAD_REACTORS
330
2A
102
}
330
2A
100
AcDbVisualStyle
  2
Realistic
 70
     8
177
     2
291
     0
 71
     2
176
     1
 72
     3
176
     1
 73
     0
176
     1
 90
        2
176
     1
 40
0.6
176
     1
 41
30.0
176
     1
 62
     5
 63
     7
421
 16777215
176
     1
 74
     0
176
     1
 91
        0
176
     1
 64
     7
176
     1
 65
   257
176
     1
 75
     1
176
     1
175
     1
176
     1
 42
1.0
176
     1
 92
        8
176
     1
 66
   257
176
     1
 43
1.0
176
     1
 76
     1
176
     1
 77
     6
176
     1
 78
     2
176
     1
 67
     7
176
     1
 79
     3
176
     1
170
     0
176
     1
171
     0
176
     1
290
     0
176
     1
 93
       13
176
     1
 44
0.0
176
     1
173
     0
176
     1
  0
VISUALSTYLE
  5
42
102
{ACAD_REACTORS
330
2A
102
}
330
2A
100
AcDbVisualStyle
  2
Shaded
 70
    27
177
     2
291
     0
 71
     2
176
     1
 72
     2
176
     1
 73
     1
176
     1
 90
        2
176
     1
 40
0.6
176
     1
 41
30.0
176
     1
 62
     5
 63
     7
421
 16777215
176
     1
 74
     0
176
     1
 91
        4
176
     1
 64
     7
176
     1
 65
   257
176
     1
 75
     1
176
     1
175
     1
176
     1
 42
1.0
176
     1
 92
        8
176
     1
 66
   257
176
     1
 43
1.0
176
     1
 76
     1
176
     1
 77
     6
176
     1
 78
     2
176
     1
 67
     8
425
  7895160
176
     1
 79
     3
176
     1
170
     0
176
     1
171
     0
176
     1
290
     0
176
     1
 93
        5
176
     1
 44
0.0
176
     1
173
     0
176
     1
  0
VISUALSTYLE
  5
41
102
{ACAD_REACTORS
330
2A
102
}
330
2A
100
AcDbVisualStyle
  2
Shaded with edges
 70
    26
177
     2
291
     0
 71
     2
176
     1
 72
     2
176
     1
 73
     1
176
     1
 90
        2
176
     1
 40
0.6
176
     1
 41
30.0
176
     1
 62
     5
 63
     7
421
 16777215
176
     1
 74
     1
176
     1
 91
       10
176
     1
 64
     7
176
     1
 65
   257
176
     1
 75
     2
176
     1
175
     1
176
     1
 42
1.0
176
     1
 92
        8
176
     1
 66
   257
176
     1
 43
1.0
176
     1
 76
     1
176
     1
 77
     6
176
     1
 78
     2
176
     1
 67
     7
176
     1
 79
     3
176
     1
170
     0
176
     1
171
     0
176
     1
290
     0
176
     1
 93
        5
176
     1
 44
0.0
176
     1
173
     0
176
     1
  0
VISUALSTYLE
  5
3E
102
{ACAD_REACTORS
330
2A
102
}
330
2A
100
AcDbVisualStyle
  2
Shades of Gray
 70
    23
177
     2
291
     0
 71
     2
176
     1
 72
     2
176
     1
 73
     3
176
     1
 90
        0
176
     1
 40
0.6
176
     1
 41
30.0
176
     1
 62
     5
 63
     7
421
 16777215
176
     1
 74
     2
176
     1
 91
        2
176
     1
 64
     7
176
     1
 65
     7
176
     1
 75
     1
176
     1
175
     1
176
     1
 42
40.0
176
     1
 92
        8
176
     1
 66
     7
176
     1
 43
1.0
176
     1
 76
     1
176
     1
 77
     6
176
     1
 78
     2
176
     1
 67
     7
176
     1
 79
     3
176
     1
170
     0
176
     1
171
     0
176
     1
290
     0
176
     1
 93
        1
176
     1
 44
0.0
176
     1
173
     0
176
     1
  0
VISUALSTYLE
  5
3F
102
{ACAD_REACTORS
330
2A
102
}
330
2A
100
AcDbVisualStyle
  2
Sketchy
 70
    24
177
     2
291
     0
 71
     1
176
     1
 72
     2
176
     1
 73
     2
176
     1
 90
        0
176
     1
 40
0.6
176
     1
 41
30.0
176
     1
 62
     5
 63
     7
421
 16777215
176
     1
 74
     2
176
     1
 91
        2
176
     1
 64
     7
176
     1
 65
     7
176
     1
 75
     1
176
     1
175
     1
176
     1
 42
40.0
176
     1
 92
       11
176
     1
 66
     7
176
     1
 43
1.0
176
     1
 76
     1
176
     1
 77
     6
176
     1
 78
     2
176
     1
 67
     7
176
     1
 79
     6
176
     1
170
     0
176
     1
171
     0
176
     1
290
     0
176
     1
 93
        1
176
     1
 44
0.0
176
     1
173
     0
176
     1
  0
VISUALSTYLE
  5
37
102
{ACAD_REACTORS
330
2A
102
}
330
2A
100
AcDbVisualStyle
  2
Thicken
 70
    13
177
     2
291
     1
 71
     2
176
     1
 72
     2
176
     1
 73
     0
176
     1
 90
        0
176
     1
 40
0.6
176
     1
 41
30.0
176
     1
 62
     5
 63
     7
421
 16777215
176
     1
 74
     1
176
     1
 91
        4
176
     1
 64
     7
176
     1
 65
   257
176
     1
 75
     1
176
     1
175
     1
176
     1
 42
1.0
176
     1
 92
       12
176
     1
 66
     7
176
     1
 43
1.0
176
     1
 76
     1
176
     1
 77
     6
176
     1
 78
     2
176
     1
 67
     7
176
     1
 79
     5
176
     1
170
     0
176
     1
171
     0
176
     1
290
     0
176
     1
 93
        1
176
     1
 44
0.0
176
     1
173
     0
176
     1
  0
VISUALSTYLE
  5
30
102
{ACAD_REACTORS
330
2A
102
}
330
2A
100
AcDbVisualStyle
  2
Wireframe
 70
     5
177
     2
291
     0
 71
     0
176
     1
 72
     2
176
     1
 73
     0
176
     1
 90
        0
176
     1
 40
0.6
176
     1
 41
30.0
176
     1
 62
     5
 63
     7
421
 16777215
176
     1
 74
     1
176
     1
 91
        4
176
     1
 64
     7
176
     1
 65
   257
176
     1
 75
     1
176
     1
175
     1
176
     1
 42
1.0
176
     1
 92
        0
176
     1
 66
   257
176
     1
 43
1.0
176
     1
 76
     1
176
     1
 77
     6
176
     1
 78
     2
176
     1
 67
     7
176
     1
 79
     3
176
     1
170
     0
176
     1
171
     0
176
     1
290
     0
176
     1
 93
        1
176
     1
 44
0.0
176
     1
173
     0
176
     1
  0
VISUALSTYLE
  5
40
102
{ACAD_REACTORS
330
2A
102
}
330
2A
100
AcDbVisualStyle
  2
X-Ray
 70
    25
177
     2
291
     0
 71
     2
176
     1
 72
     2
176
     1
 73
     1
176
     1
 90
        1
176
     1
 40
0.5
176
     1
 41
30.0
176
     1
 62
     5
 63
     7
421
 16777215
176
     1
 74
     1
176
     1
 91
        0
176
     1
 64
     7
176
     1
 65
   257
176
     1
 75
     1
176
     1
175
     1
176
     1
 42
1.0
176
     1
 92
        8
176
     1
 66
     7
176
     1
 43
1.0
176
     1
 76
     1
176
     1
 77
     6
176
     1
 78
     2
176
     1
 67
     7
176
     1
 79
     3
176
     1
170
     0
176
     1
171
     0
176
     1
290
     0
176
     1
 93
       13
176
     1
 44
0.0
176
     1
173
     0
176
     1
  0
DICTIONARYVAR
  5
3D7
102
{ACAD_REACTORS
330
3D6
102
}
330
3D6
100
DictionaryVariables
280
     0
  1
1:1
  0
ENDSEC
  0
EOF
